ISO-10303-21;
HEADER;
FILE_DESCRIPTION (( 'STEP AP214' ),
    '1' );
FILE_NAME ('03-1643.STEP',
    '2021-10-01T05:06:28',
    ( 'USER' ),
    ( '' ),
    'SwSTEP 2.0',
    'SolidWorks 2018',
    '' );
FILE_SCHEMA (( 'AUTOMOTIVE_DESIGN' ));
ENDSEC;

DATA;
#1 = CARTESIAN_POINT ( 'NONE',  ( 0.0000000000000000000, 0.0000000000000000000, 0.0000000000000000000 ) ) ;
#2 = ORIENTED_EDGE ( 'NONE', *, *, #129, .F. ) ;
#3 = ADVANCED_FACE ( 'NONE', ( #35 ), #90, .F. ) ;
#4 = VERTEX_POINT ( 'NONE', #89 ) ;
#5 = AXIS2_PLACEMENT_3D ( 'NONE', #140, #51, #164 ) ;
#6 = PRESENTATION_STYLE_ASSIGNMENT (( #108 ) ) ;
#7 = DIRECTION ( 'NONE',  ( -1.000000000000000000, -0.0000000000000000000, -0.0000000000000000000 ) ) ;
#8 = FACE_OUTER_BOUND ( 'NONE', #198, .T. ) ;
#9 = DIRECTION ( 'NONE',  ( 0.0000000000000000000, 0.0000000000000000000, -1.000000000000000000 ) ) ;
#10 = DIRECTION ( 'NONE',  ( 1.000000000000000000, 0.0000000000000000000, 0.0000000000000000000 ) ) ;
#11 = VERTEX_POINT ( 'NONE', #171 ) ;
#12 = DIRECTION ( 'NONE',  ( -1.000000000000000000, -0.0000000000000000000, -0.0000000000000000000 ) ) ;
#13 = AXIS2_PLACEMENT_3D ( 'NONE', #1, #63, #197 ) ;
#14 = DIRECTION ( 'NONE',  ( 0.0000000000000000000, 0.0000000000000000000, 1.000000000000000000 ) ) ;
#15 = ADVANCED_BREP_SHAPE_REPRESENTATION ( '03-1643', ( #91, #101, #13 ), #25 ) ;
#16 = CONICAL_SURFACE ( 'NONE', #184, 1.479999999999981330, 0.7853981633974492782 ) ;
#17 = MECHANICAL_DESIGN_GEOMETRIC_PRESENTATION_REPRESENTATION (  '', ( #98 ), #43 ) ;
#18 = STYLED_ITEM ( 'NONE', ( #40 ), #15 ) ;
#19 = ADVANCED_FACE ( 'NONE', ( #81, #8 ), #38, .T. ) ;
#20 = SHAPE_DEFINITION_REPRESENTATION ( #37, #15 ) ;
#21 = FACE_OUTER_BOUND ( 'NONE', #194, .T. ) ;
#22 = EDGE_LOOP ( 'NONE', ( #76 ) ) ;
#23 = PRESENTATION_LAYER_ASSIGNMENT (  '', '', ( #191 ) ) ;
#24 = FACE_BOUND ( 'NONE', #145, .T. ) ;
#25 =( GEOMETRIC_REPRESENTATION_CONTEXT ( 3 ) GLOBAL_UNCERTAINTY_ASSIGNED_CONTEXT ( ( #127 ) ) GLOBAL_UNIT_ASSIGNED_CONTEXT ( ( #52, #200, #115 ) ) REPRESENTATION_CONTEXT ( 'NONE', 'WORKASPACE' ) );
#26 = ORIENTED_EDGE ( 'NONE', *, *, #141, .T. ) ;
#27 = DIRECTION ( 'NONE',  ( 1.000000000000000000, 0.0000000000000000000, 0.0000000000000000000 ) ) ;
#28 = DIRECTION ( 'NONE',  ( 1.000000000000000000, 0.0000000000000000000, 0.0000000000000000000 ) ) ;
#29 = ORIENTED_EDGE ( 'NONE', *, *, #117, .T. ) ;
#30 = DIRECTION ( 'NONE',  ( -1.000000000000000000, -0.0000000000000000000, -0.0000000000000000000 ) ) ;
#31 = DIRECTION ( 'NONE',  ( 0.0000000000000000000, 0.0000000000000000000, -1.000000000000000000 ) ) ;
#32 = CONICAL_SURFACE ( 'NONE', #48, 2414.213562373070545, 1.178097245096168866 ) ;
#33 = CARTESIAN_POINT ( 'NONE',  ( 31.00000000000000711, 0.0000000000000000000, 0.0000000000000000000 ) ) ;
#34 = AXIS2_PLACEMENT_3D ( 'NONE', #112, #106, #31 ) ;
#35 = FACE_OUTER_BOUND ( 'NONE', #147, .T. ) ;
#36 = SURFACE_STYLE_FILL_AREA ( #206 ) ;
#37 = PRODUCT_DEFINITION_SHAPE ( 'NONE', 'NONE',  #85 ) ;
#38 = CYLINDRICAL_SURFACE ( 'NONE', #172, 1.850000000000004530 ) ;
#39 = MECHANICAL_DESIGN_GEOMETRIC_PRESENTATION_REPRESENTATION (  '', ( #175 ), #65 ) ;
#40 = PRESENTATION_STYLE_ASSIGNMENT (( #148 ) ) ;
#41 = SURFACE_STYLE_FILL_AREA ( #64 ) ;
#42 = ADVANCED_FACE ( 'NONE', ( #107 ), #72, .T. ) ;
#43 =( GEOMETRIC_REPRESENTATION_CONTEXT ( 3 ) GLOBAL_UNCERTAINTY_ASSIGNED_CONTEXT ( ( #213 ) ) GLOBAL_UNIT_ASSIGNED_CONTEXT ( ( #97, #196, #204 ) ) REPRESENTATION_CONTEXT ( 'NONE', 'WORKASPACE' ) );
#44 = ORIENTED_EDGE ( 'NONE', *, *, #156, .F. ) ;
#45 = CIRCLE ( 'NONE', #211, 1.479999999999981330 ) ;
#46 = COLOUR_RGB ( '',0.7921568627450980005, 0.8196078431372548767, 0.9333333333333333481 ) ;
#47 = FACE_OUTER_BOUND ( 'NONE', #87, .T. ) ;
#48 = AXIS2_PLACEMENT_3D ( 'NONE', #163, #139, #146 ) ;
#49 = CARTESIAN_POINT ( 'NONE',  ( -1.132798289211301304E-16, 0.0000000000000000000, 0.0000000000000000000 ) ) ;
#50 = CARTESIAN_POINT ( 'NONE',  ( -1.132798289211301304E-16, 0.0000000000000000000, 0.0000000000000000000 ) ) ;
#51 = DIRECTION ( 'NONE',  ( -1.000000000000000000, -0.0000000000000000000, -0.0000000000000000000 ) ) ;
#52 =( LENGTH_UNIT ( ) NAMED_UNIT ( * ) SI_UNIT ( .MILLI., .METRE. ) );
#53 =( NAMED_UNIT ( * ) PLANE_ANGLE_UNIT ( ) SI_UNIT ( $, .RADIAN. ) );
#54 = MECHANICAL_DESIGN_GEOMETRIC_PRESENTATION_REPRESENTATION (  '', ( #96 ), #110 ) ;
#55 = FILL_AREA_STYLE ('',( #151 ) ) ;
#56 = UNCERTAINTY_MEASURE_WITH_UNIT (LENGTH_MEASURE( 1.000000000000000082E-05 ), #67, 'distance_accuracy_value', 'NONE');
#57 = AXIS2_PLACEMENT_3D ( 'NONE', #120, #189, #188 ) ;
#58 = CARTESIAN_POINT ( 'NONE',  ( 69.23370490960977008, 0.0000000000000000000, 1.850000000000008527 ) ) ;
#59 = SURFACE_STYLE_FILL_AREA ( #193 ) ;
#60 = PRODUCT_RELATED_PRODUCT_CATEGORY ( 'part', '', ( #199 ) ) ;
#61 = SURFACE_STYLE_FILL_AREA ( #55 ) ;
#62 = PRESENTATION_LAYER_ASSIGNMENT (  '', '', ( #18 ) ) ;
#63 = DIRECTION ( 'NONE',  ( 0.0000000000000000000, 0.0000000000000000000, 1.000000000000000000 ) ) ;
#64 = FILL_AREA_STYLE ('',( #118 ) ) ;
#65 =( GEOMETRIC_REPRESENTATION_CONTEXT ( 3 ) GLOBAL_UNCERTAINTY_ASSIGNED_CONTEXT ( ( #130 ) ) GLOBAL_UNIT_ASSIGNED_CONTEXT ( ( #138, #111, #88 ) ) REPRESENTATION_CONTEXT ( 'NONE', 'WORKASPACE' ) );
#66 = CIRCLE ( 'NONE', #176, 1.850000000000004530 ) ;
#67 =( LENGTH_UNIT ( ) NAMED_UNIT ( * ) SI_UNIT ( .MILLI., .METRE. ) );
#68 = ORIENTED_EDGE ( 'NONE', *, *, #156, .T. ) ;
#69 = DIRECTION ( 'NONE',  ( 0.0000000000000000000, 0.0000000000000000000, 1.000000000000000000 ) ) ;
#70 = PRODUCT_DEFINITION_FORMATION_WITH_SPECIFIED_SOURCE ( 'ANY', '', #199, .NOT_KNOWN. ) ;
#71 = PRESENTATION_STYLE_ASSIGNMENT (( #153 ) ) ;
#72 = PLANE ( 'NONE',  #34 ) ;
#73 = CARTESIAN_POINT ( 'NONE',  ( 0.0000000000000000000, 0.0000000000000000000, 0.0000000000000000000 ) ) ;
#74 = CIRCLE ( 'NONE', #157, 1.850000000000004530 ) ;
#75 = CLOSED_SHELL ( 'NONE', ( #103, #173, #158, #42 ) ) ;
#76 = ORIENTED_EDGE ( 'NONE', *, *, #141, .F. ) ;
#77 = PRESENTATION_LAYER_ASSIGNMENT (  '', '', ( #175 ) ) ;
#78 = APPLICATION_PROTOCOL_DEFINITION ( 'draft international standard', 'automotive_design', 1998, #185 ) ;
#79 = PRESENTATION_LAYER_ASSIGNMENT (  '', '', ( #96 ) ) ;
#80 = UNCERTAINTY_MEASURE_WITH_UNIT (LENGTH_MEASURE( 1.000000000000000082E-05 ), #142, 'distance_accuracy_value', 'NONE');
#81 = FACE_OUTER_BOUND ( 'NONE', #113, .T. ) ;
#82 =( NAMED_UNIT ( * ) SI_UNIT ( $, .STERADIAN. ) SOLID_ANGLE_UNIT ( ) );
#83 = ORIENTED_EDGE ( 'NONE', *, *, #117, .F. ) ;
#84 = CIRCLE ( 'NONE', #169, 1.850000000000004530 ) ;
#85 = PRODUCT_DEFINITION ( 'UNKNOWN', '', #70, #161 ) ;
#86 = VERTEX_POINT ( 'NONE', #58 ) ;
#87 = EDGE_LOOP ( 'NONE', ( #29 ) ) ;
#88 =( NAMED_UNIT ( * ) SI_UNIT ( $, .STERADIAN. ) SOLID_ANGLE_UNIT ( ) );
#89 = CARTESIAN_POINT ( 'NONE',  ( 31.00000000000000711, 0.0000000000000000000, -1.850000000000004530 ) ) ;
#90 = PLANE ( 'NONE',  #57 ) ;
#91 = MANIFOLD_SOLID_BREP ( 'ºÐÇÒ2[1]', #75 ) ;
#92 = AXIS2_PLACEMENT_3D ( 'NONE', #181, #27, #210 ) ;
#93 = SURFACE_SIDE_STYLE ('',( #59 ) ) ;
#94 = DIRECTION ( 'NONE',  ( 0.0000000000000000000, 0.0000000000000000000, -1.000000000000000000 ) ) ;
#95 = ORIENTED_EDGE ( 'NONE', *, *, #149, .T. ) ;
#96 = STYLED_ITEM ( 'NONE', ( #6 ), #19 ) ;
#97 =( LENGTH_UNIT ( ) NAMED_UNIT ( * ) SI_UNIT ( .MILLI., .METRE. ) );
#98 = STYLED_ITEM ( 'NONE', ( #125 ), #116 ) ;
#99 = CYLINDRICAL_SURFACE ( 'NONE', #124, 1.850000000000004530 ) ;
#100 = COLOUR_RGB ( '',1.000000000000000000, 1.000000000000000000, 0.0000000000000000000 ) ;
#101 = MANIFOLD_SOLID_BREP ( 'ºÐÇÒ2[2]', #126 ) ;
#102 = FACE_OUTER_BOUND ( 'NONE', #165, .T. ) ;
#103 = ADVANCED_FACE ( 'NONE', ( #102, #137 ), #99, .T. ) ;
#104 = PRODUCT_CONTEXT ( 'NONE', #187, 'mechanical' ) ;
#105 = VERTEX_POINT ( 'NONE', #136 ) ;
#106 = DIRECTION ( 'NONE',  ( 1.000000000000000000, 0.0000000000000000000, 0.0000000000000000000 ) ) ;
#107 = FACE_OUTER_BOUND ( 'NONE', #159, .T. ) ;
#108 = SURFACE_STYLE_USAGE ( .BOTH. , #207 ) ;
#109 = DIRECTION ( 'NONE',  ( 0.0000000000000000000, 0.0000000000000000000, -1.000000000000000000 ) ) ;
#110 =( GEOMETRIC_REPRESENTATION_CONTEXT ( 3 ) GLOBAL_UNCERTAINTY_ASSIGNED_CONTEXT ( ( #56 ) ) GLOBAL_UNIT_ASSIGNED_CONTEXT ( ( #67, #178, #167 ) ) REPRESENTATION_CONTEXT ( 'NONE', 'WORKASPACE' ) );
#111 =( NAMED_UNIT ( * ) PLANE_ANGLE_UNIT ( ) SI_UNIT ( $, .RADIAN. ) );
#112 = CARTESIAN_POINT ( 'NONE',  ( 31.00000000000000711, 0.0000000000000000000, 0.0000000000000000000 ) ) ;
#113 = EDGE_LOOP ( 'NONE', ( #95 ) ) ;
#114 =( GEOMETRIC_REPRESENTATION_CONTEXT ( 3 ) GLOBAL_UNCERTAINTY_ASSIGNED_CONTEXT ( ( #80 ) ) GLOBAL_UNIT_ASSIGNED_CONTEXT ( ( #142, #53, #177 ) ) REPRESENTATION_CONTEXT ( 'NONE', 'WORKASPACE' ) );
#115 =( NAMED_UNIT ( * ) SI_UNIT ( $, .STERADIAN. ) SOLID_ANGLE_UNIT ( ) );
#116 = ADVANCED_FACE ( 'NONE', ( #134 ), #32, .T. ) ;
#117 = EDGE_CURVE ( 'NONE', #201, #201, #45, .T. ) ;
#118 = FILL_AREA_STYLE_COLOUR ( '', #208 ) ;
#119 = ORIENTED_EDGE ( 'NONE', *, *, #149, .F. ) ;
#120 = CARTESIAN_POINT ( 'NONE',  ( 31.00000000000000711, 0.0000000000000000000, 0.0000000000000000000 ) ) ;
#121 =( GEOMETRIC_REPRESENTATION_CONTEXT ( 3 ) GLOBAL_UNCERTAINTY_ASSIGNED_CONTEXT ( ( #174 ) ) GLOBAL_UNIT_ASSIGNED_CONTEXT ( ( #162, #186, #82 ) ) REPRESENTATION_CONTEXT ( 'NONE', 'WORKASPACE' ) );
#122 = EDGE_LOOP ( 'NONE', ( #2 ) ) ;
#123 = CARTESIAN_POINT ( 'NONE',  ( 31.00000000000000711, 0.0000000000000000000, 0.0000000000000000000 ) ) ;
#124 = AXIS2_PLACEMENT_3D ( 'NONE', #73, #12, #69 ) ;
#125 = PRESENTATION_STYLE_ASSIGNMENT (( #192 ) ) ;
#126 = CLOSED_SHELL ( 'NONE', ( #3, #19, #116 ) ) ;
#127 = UNCERTAINTY_MEASURE_WITH_UNIT (LENGTH_MEASURE( 1.000000000000000082E-05 ), #52, 'distance_accuracy_value', 'NONE');
#128 = PRESENTATION_STYLE_ASSIGNMENT (( #183 ) ) ;
#129 = EDGE_CURVE ( 'NONE', #86, #86, #133, .T. ) ;
#130 = UNCERTAINTY_MEASURE_WITH_UNIT (LENGTH_MEASURE( 1.000000000000000082E-05 ), #138, 'distance_accuracy_value', 'NONE');
#131 = APPLICATION_PROTOCOL_DEFINITION ( 'draft international standard', 'automotive_design', 1998, #187 ) ;
#132 = SURFACE_SIDE_STYLE ('',( #41 ) ) ;
#133 = CIRCLE ( 'NONE', #5, 1.850000000000008527 ) ;
#134 = FACE_OUTER_BOUND ( 'NONE', #122, .T. ) ;
#135 = PRESENTATION_LAYER_ASSIGNMENT (  '', '', ( #98 ) ) ;
#136 = CARTESIAN_POINT ( 'NONE',  ( 0.3700000000000222000, 0.0000000000000000000, -1.850000000000004530 ) ) ;
#137 = FACE_OUTER_BOUND ( 'NONE', #22, .T. ) ;
#138 =( LENGTH_UNIT ( ) NAMED_UNIT ( * ) SI_UNIT ( .MILLI., .METRE. ) );
#139 = DIRECTION ( 'NONE',  ( -1.000000000000000000, -0.0000000000000000000, -0.0000000000000000000 ) ) ;
#140 = CARTESIAN_POINT ( 'NONE',  ( 69.23370490960977008, 0.0000000000000000000, 0.0000000000000000000 ) ) ;
#141 = EDGE_CURVE ( 'NONE', #11, #11, #74, .T. ) ;
#142 =( LENGTH_UNIT ( ) NAMED_UNIT ( * ) SI_UNIT ( .MILLI., .METRE. ) );
#143 = FILL_AREA_STYLE_COLOUR ( '', #46 ) ;
#144 = DIRECTION ( 'NONE',  ( 0.0000000000000000000, 0.0000000000000000000, -1.000000000000000000 ) ) ;
#145 = EDGE_LOOP ( 'NONE', ( #83 ) ) ;
#146 = DIRECTION ( 'NONE',  ( 0.0000000000000000000, 0.0000000000000000000, 1.000000000000000000 ) ) ;
#147 = EDGE_LOOP ( 'NONE', ( #119 ) ) ;
#148 = SURFACE_STYLE_USAGE ( .BOTH. , #132 ) ;
#149 = EDGE_CURVE ( 'NONE', #4, #4, #84, .T. ) ;
#150 = SURFACE_SIDE_STYLE ('',( #61 ) ) ;
#151 = FILL_AREA_STYLE_COLOUR ( '', #100 ) ;
#152 = CARTESIAN_POINT ( 'NONE',  ( 0.3700000000000222000, 0.0000000000000000000, 0.0000000000000000000 ) ) ;
#153 = SURFACE_STYLE_USAGE ( .BOTH. , #209 ) ;
#154 = FILL_AREA_STYLE_COLOUR ( '', #170 ) ;
#155 = CARTESIAN_POINT ( 'NONE',  ( -1.132798289211301304E-16, 0.0000000000000000000, -1.479999999999981330 ) ) ;
#156 = EDGE_CURVE ( 'NONE', #105, #105, #66, .T. ) ;
#157 = AXIS2_PLACEMENT_3D ( 'NONE', #123, #180, #144 ) ;
#158 = ADVANCED_FACE ( 'NONE', ( #21, #24 ), #16, .T. ) ;
#159 = EDGE_LOOP ( 'NONE', ( #26 ) ) ;
#160 = MECHANICAL_DESIGN_GEOMETRIC_PRESENTATION_REPRESENTATION (  '', ( #18 ), #121 ) ;
#161 = PRODUCT_DEFINITION_CONTEXT ( 'detailed design', #185, 'design' ) ;
#162 =( LENGTH_UNIT ( ) NAMED_UNIT ( * ) SI_UNIT ( .MILLI., .METRE. ) );
#163 = CARTESIAN_POINT ( 'NONE',  ( -929.9999999999998863, 0.0000000000000000000, 0.0000000000000000000 ) ) ;
#164 = DIRECTION ( 'NONE',  ( 0.0000000000000000000, 0.0000000000000000000, 1.000000000000000000 ) ) ;
#165 = EDGE_LOOP ( 'NONE', ( #68 ) ) ;
#166 = DIRECTION ( 'NONE',  ( 0.0000000000000000000, 0.0000000000000000000, -1.000000000000000000 ) ) ;
#167 =( NAMED_UNIT ( * ) SI_UNIT ( $, .STERADIAN. ) SOLID_ANGLE_UNIT ( ) );
#168 = CARTESIAN_POINT ( 'NONE',  ( 0.0000000000000000000, 0.0000000000000000000, 0.0000000000000000000 ) ) ;
#169 = AXIS2_PLACEMENT_3D ( 'NONE', #33, #179, #94 ) ;
#170 = COLOUR_RGB ( '',0.7921568627450980005, 0.8196078431372548767, 0.9333333333333333481 ) ;
#171 = CARTESIAN_POINT ( 'NONE',  ( 31.00000000000000711, 0.0000000000000000000, -1.850000000000004530 ) ) ;
#172 = AXIS2_PLACEMENT_3D ( 'NONE', #168, #30, #14 ) ;
#173 = ADVANCED_FACE ( 'NONE', ( #47 ), #190, .F. ) ;
#174 = UNCERTAINTY_MEASURE_WITH_UNIT (LENGTH_MEASURE( 1.000000000000000082E-05 ), #162, 'distance_accuracy_value', 'NONE');
#175 = STYLED_ITEM ( 'NONE', ( #128 ), #91 ) ;
#176 = AXIS2_PLACEMENT_3D ( 'NONE', #152, #28, #166 ) ;
#177 =( NAMED_UNIT ( * ) SI_UNIT ( $, .STERADIAN. ) SOLID_ANGLE_UNIT ( ) );
#178 =( NAMED_UNIT ( * ) PLANE_ANGLE_UNIT ( ) SI_UNIT ( $, .RADIAN. ) );
#179 = DIRECTION ( 'NONE',  ( 1.000000000000000000, 0.0000000000000000000, 0.0000000000000000000 ) ) ;
#180 = DIRECTION ( 'NONE',  ( 1.000000000000000000, 0.0000000000000000000, 0.0000000000000000000 ) ) ;
#181 = CARTESIAN_POINT ( 'NONE',  ( -1.132798289211301304E-16, 1.850000000000000089, 0.0000000000000000000 ) ) ;
#182 = FILL_AREA_STYLE_COLOUR ( '', #195 ) ;
#183 = SURFACE_STYLE_USAGE ( .BOTH. , #93 ) ;
#184 = AXIS2_PLACEMENT_3D ( 'NONE', #49, #10, #109 ) ;
#185 = APPLICATION_CONTEXT ( 'automotive_design' ) ;
#186 =( NAMED_UNIT ( * ) PLANE_ANGLE_UNIT ( ) SI_UNIT ( $, .RADIAN. ) );
#187 = APPLICATION_CONTEXT ( 'automotive_design' ) ;
#188 = DIRECTION ( 'NONE',  ( 0.0000000000000000000, 0.0000000000000000000, -1.000000000000000000 ) ) ;
#189 = DIRECTION ( 'NONE',  ( 1.000000000000000000, 0.0000000000000000000, 0.0000000000000000000 ) ) ;
#190 = PLANE ( 'NONE',  #92 ) ;
#191 = STYLED_ITEM ( 'NONE', ( #71 ), #101 ) ;
#192 = SURFACE_STYLE_USAGE ( .BOTH. , #150 ) ;
#193 = FILL_AREA_STYLE ('',( #143 ) ) ;
#194 = EDGE_LOOP ( 'NONE', ( #44 ) ) ;
#195 = COLOUR_RGB ( '',1.000000000000000000, 1.000000000000000000, 0.0000000000000000000 ) ;
#196 =( NAMED_UNIT ( * ) PLANE_ANGLE_UNIT ( ) SI_UNIT ( $, .RADIAN. ) );
#197 = DIRECTION ( 'NONE',  ( 1.000000000000000000, 0.0000000000000000000, 0.0000000000000000000 ) ) ;
#198 = EDGE_LOOP ( 'NONE', ( #202 ) ) ;
#199 = PRODUCT ( '03-1643', '03-1643', '', ( #104 ) ) ;
#200 =( NAMED_UNIT ( * ) PLANE_ANGLE_UNIT ( ) SI_UNIT ( $, .RADIAN. ) );
#201 = VERTEX_POINT ( 'NONE', #155 ) ;
#202 = ORIENTED_EDGE ( 'NONE', *, *, #129, .T. ) ;
#203 = MECHANICAL_DESIGN_GEOMETRIC_PRESENTATION_REPRESENTATION (  '', ( #191 ), #114 ) ;
#204 =( NAMED_UNIT ( * ) SI_UNIT ( $, .STERADIAN. ) SOLID_ANGLE_UNIT ( ) );
#205 = SURFACE_STYLE_FILL_AREA ( #212 ) ;
#206 = FILL_AREA_STYLE ('',( #182 ) ) ;
#207 = SURFACE_SIDE_STYLE ('',( #36 ) ) ;
#208 = COLOUR_RGB ( '',0.7921568627450980005, 0.8196078431372548767, 0.9333333333333333481 ) ;
#209 = SURFACE_SIDE_STYLE ('',( #205 ) ) ;
#210 = DIRECTION ( 'NONE',  ( 0.0000000000000000000, 0.0000000000000000000, -1.000000000000000000 ) ) ;
#211 = AXIS2_PLACEMENT_3D ( 'NONE', #50, #7, #9 ) ;
#212 = FILL_AREA_STYLE ('',( #154 ) ) ;
#213 = UNCERTAINTY_MEASURE_WITH_UNIT (LENGTH_MEASURE( 1.000000000000000082E-05 ), #97, 'distance_accuracy_value', 'NONE');
ENDSEC;
END-ISO-10303-21;
