ISO-10303-21;
HEADER;
FILE_DESCRIPTION (( 'STEP AP214' ),
    '1' );
FILE_NAME ('03-1644.STEP',
    '2021-10-01T05:06:42',
    ( 'USER' ),
    ( '' ),
    'SwSTEP 2.0',
    'SolidWorks 2018',
    '' );
FILE_SCHEMA (( 'AUTOMOTIVE_DESIGN' ));
ENDSEC;

DATA;
#1 = CYLINDRICAL_SURFACE ( 'NONE', #72, 1.900000000000004574 ) ;
#2 = ORIENTED_EDGE ( 'NONE', *, *, #172, .T. ) ;
#3 = PRODUCT ( '03-1644', '03-1644', '', ( #64 ) ) ;
#4 = STYLED_ITEM ( 'NONE', ( #104 ), #114 ) ;
#5 = COLOUR_RGB ( '',1.000000000000000000, 1.000000000000000000, 0.0000000000000000000 ) ;
#6 = AXIS2_PLACEMENT_3D ( 'NONE', #192, #39, #55 ) ;
#7 = SURFACE_STYLE_FILL_AREA ( #45 ) ;
#8 = FACE_OUTER_BOUND ( 'NONE', #164, .T. ) ;
#9 = SURFACE_SIDE_STYLE ('',( #50 ) ) ;
#10 = ORIENTED_EDGE ( 'NONE', *, *, #179, .F. ) ;
#11 =( NAMED_UNIT ( * ) SI_UNIT ( $, .STERADIAN. ) SOLID_ANGLE_UNIT ( ) );
#12 = APPLICATION_CONTEXT ( 'automotive_design' ) ;
#13 =( LENGTH_UNIT ( ) NAMED_UNIT ( * ) SI_UNIT ( .MILLI., .METRE. ) );
#14 =( NAMED_UNIT ( * ) PLANE_ANGLE_UNIT ( ) SI_UNIT ( $, .RADIAN. ) );
#15 = FACE_OUTER_BOUND ( 'NONE', #22, .T. ) ;
#16 = CARTESIAN_POINT ( 'NONE',  ( -1.163414459189985682E-16, 0.0000000000000000000, 0.0000000000000000000 ) ) ;
#17 = CARTESIAN_POINT ( 'NONE',  ( 0.0000000000000000000, 0.0000000000000000000, 0.0000000000000000000 ) ) ;
#18 = AXIS2_PLACEMENT_3D ( 'NONE', #206, #198, #154 ) ;
#19 = CARTESIAN_POINT ( 'NONE',  ( 74.21299423149110908, 0.0000000000000000000, 0.0000000000000000000 ) ) ;
#20 = EDGE_LOOP ( 'NONE', ( #84 ) ) ;
#21 = EDGE_LOOP ( 'NONE', ( #110 ) ) ;
#22 = EDGE_LOOP ( 'NONE', ( #2 ) ) ;
#23 = ADVANCED_FACE ( 'NONE', ( #15 ), #136, .F. ) ;
#24 = CIRCLE ( 'NONE', #150, 1.900000000000004574 ) ;
#25 =( LENGTH_UNIT ( ) NAMED_UNIT ( * ) SI_UNIT ( .MILLI., .METRE. ) );
#26 = SURFACE_STYLE_USAGE ( .BOTH. , #99 ) ;
#27 = AXIS2_PLACEMENT_3D ( 'NONE', #197, #209, #185 ) ;
#28 = DIRECTION ( 'NONE',  ( -1.000000000000000000, -0.0000000000000000000, -0.0000000000000000000 ) ) ;
#29 = APPLICATION_PROTOCOL_DEFINITION ( 'draft international standard', 'automotive_design', 1998, #12 ) ;
#30 = SURFACE_STYLE_USAGE ( .BOTH. , #201 ) ;
#31 =( LENGTH_UNIT ( ) NAMED_UNIT ( * ) SI_UNIT ( .MILLI., .METRE. ) );
#32 = EDGE_LOOP ( 'NONE', ( #10 ) ) ;
#33 = FILL_AREA_STYLE_COLOUR ( '', #5 ) ;
#34 = EDGE_LOOP ( 'NONE', ( #91 ) ) ;
#35 = ORIENTED_EDGE ( 'NONE', *, *, #190, .F. ) ;
#36 = ORIENTED_EDGE ( 'NONE', *, *, #178, .T. ) ;
#37 = SHAPE_DEFINITION_REPRESENTATION ( #184, #193 ) ;
#38 = ADVANCED_FACE ( 'NONE', ( #119 ), #166, .F. ) ;
#39 = DIRECTION ( 'NONE',  ( 1.000000000000000000, 0.0000000000000000000, 0.0000000000000000000 ) ) ;
#40 = DIRECTION ( 'NONE',  ( 0.0000000000000000000, 0.0000000000000000000, -1.000000000000000000 ) ) ;
#41 =( NAMED_UNIT ( * ) PLANE_ANGLE_UNIT ( ) SI_UNIT ( $, .RADIAN. ) );
#42 =( NAMED_UNIT ( * ) SI_UNIT ( $, .STERADIAN. ) SOLID_ANGLE_UNIT ( ) );
#43 = MANIFOLD_SOLID_BREP ( 'ºÐÇÒ2[2]', #102 ) ;
#44 = UNCERTAINTY_MEASURE_WITH_UNIT (LENGTH_MEASURE( 1.000000000000000082E-05 ), #31, 'distance_accuracy_value', 'NONE');
#45 = FILL_AREA_STYLE ('',( #103 ) ) ;
#46 =( NAMED_UNIT ( * ) SI_UNIT ( $, .STERADIAN. ) SOLID_ANGLE_UNIT ( ) );
#47 = VERTEX_POINT ( 'NONE', #160 ) ;
#48 = DIRECTION ( 'NONE',  ( 0.0000000000000000000, 0.0000000000000000000, 1.000000000000000000 ) ) ;
#49 = ORIENTED_EDGE ( 'NONE', *, *, #175, .T. ) ;
#50 = SURFACE_STYLE_FILL_AREA ( #204 ) ;
#51 = CONICAL_SURFACE ( 'NONE', #125, 1.520000000000014451, 0.7853981633974576049 ) ;
#52 = PRESENTATION_STYLE_ASSIGNMENT (( #137 ) ) ;
#53 = PRODUCT_DEFINITION_CONTEXT ( 'detailed design', #199, 'design' ) ;
#54 = CIRCLE ( 'NONE', #76, 1.900000000000004574 ) ;
#55 = DIRECTION ( 'NONE',  ( 0.0000000000000000000, 0.0000000000000000000, -1.000000000000000000 ) ) ;
#56 = DIRECTION ( 'NONE',  ( 0.0000000000000000000, 0.0000000000000000000, 1.000000000000000000 ) ) ;
#57 = COLOUR_RGB ( '',0.7921568627450980005, 0.8196078431372548767, 0.9333333333333333481 ) ;
#58 = CARTESIAN_POINT ( 'NONE',  ( -1.163414459189985682E-16, 1.900000000000000133, 0.0000000000000000000 ) ) ;
#59 = CIRCLE ( 'NONE', #71, 1.900000000000008793 ) ;
#60 = DIRECTION ( 'NONE',  ( 0.0000000000000000000, 0.0000000000000000000, -1.000000000000000000 ) ) ;
#61 = CLOSED_SHELL ( 'NONE', ( #180, #23, #165, #93 ) ) ;
#62 =( LENGTH_UNIT ( ) NAMED_UNIT ( * ) SI_UNIT ( .MILLI., .METRE. ) );
#63 = COLOUR_RGB ( '',0.7921568627450980005, 0.8196078431372548767, 0.9333333333333333481 ) ;
#64 = PRODUCT_CONTEXT ( 'NONE', #12, 'mechanical' ) ;
#65 = DIRECTION ( 'NONE',  ( 1.000000000000000000, 0.0000000000000000000, 0.0000000000000000000 ) ) ;
#66 = UNCERTAINTY_MEASURE_WITH_UNIT (LENGTH_MEASURE( 1.000000000000000082E-05 ), #117, 'distance_accuracy_value', 'NONE');
#67 = SURFACE_STYLE_FILL_AREA ( #183 ) ;
#68 = CYLINDRICAL_SURFACE ( 'NONE', #94, 1.900000000000004574 ) ;
#69 = ORIENTED_EDGE ( 'NONE', *, *, #178, .F. ) ;
#70 = VERTEX_POINT ( 'NONE', #156 ) ;
#71 = AXIS2_PLACEMENT_3D ( 'NONE', #19, #105, #145 ) ;
#72 = AXIS2_PLACEMENT_3D ( 'NONE', #122, #210, #48 ) ;
#73 = ORIENTED_EDGE ( 'NONE', *, *, #172, .F. ) ;
#74 = FILL_AREA_STYLE_COLOUR ( '', #90 ) ;
#75 = PRESENTATION_STYLE_ASSIGNMENT (( #174 ) ) ;
#76 = AXIS2_PLACEMENT_3D ( 'NONE', #127, #211, #124 ) ;
#77 = FACE_OUTER_BOUND ( 'NONE', #34, .T. ) ;
#78 = CARTESIAN_POINT ( 'NONE',  ( -1.163414459189985682E-16, 0.0000000000000000000, 0.0000000000000000000 ) ) ;
#79 = DIRECTION ( 'NONE',  ( 1.000000000000000000, 0.0000000000000000000, 0.0000000000000000000 ) ) ;
#80 = DIRECTION ( 'NONE',  ( 1.000000000000000000, 0.0000000000000000000, 0.0000000000000000000 ) ) ;
#81 = UNCERTAINTY_MEASURE_WITH_UNIT (LENGTH_MEASURE( 1.000000000000000082E-05 ), #158, 'distance_accuracy_value', 'NONE');
#82 = FACE_OUTER_BOUND ( 'NONE', #157, .T. ) ;
#83 = STYLED_ITEM ( 'NONE', ( #146 ), #191 ) ;
#84 = ORIENTED_EDGE ( 'NONE', *, *, #179, .T. ) ;
#85 = SURFACE_SIDE_STYLE ('',( #67 ) ) ;
#86 = AXIS2_PLACEMENT_3D ( 'NONE', #96, #79, #207 ) ;
#87 = APPLICATION_PROTOCOL_DEFINITION ( 'draft international standard', 'automotive_design', 1998, #199 ) ;
#88 = FILL_AREA_STYLE ('',( #33 ) ) ;
#89 = UNCERTAINTY_MEASURE_WITH_UNIT (LENGTH_MEASURE( 1.000000000000000082E-05 ), #62, 'distance_accuracy_value', 'NONE');
#90 = COLOUR_RGB ( '',1.000000000000000000, 1.000000000000000000, 0.0000000000000000000 ) ;
#91 = ORIENTED_EDGE ( 'NONE', *, *, #190, .T. ) ;
#92 = FACE_OUTER_BOUND ( 'NONE', #21, .T. ) ;
#93 = ADVANCED_FACE ( 'NONE', ( #82 ), #200, .T. ) ;
#94 = AXIS2_PLACEMENT_3D ( 'NONE', #17, #186, #121 ) ;
#95 = FILL_AREA_STYLE ('',( #74 ) ) ;
#96 = CARTESIAN_POINT ( 'NONE',  ( 32.00000000000000000, 0.0000000000000000000, 0.0000000000000000000 ) ) ;
#97 = DIRECTION ( 'NONE',  ( 1.000000000000000000, 0.0000000000000000000, 0.0000000000000000000 ) ) ;
#98 =( GEOMETRIC_REPRESENTATION_CONTEXT ( 3 ) GLOBAL_UNCERTAINTY_ASSIGNED_CONTEXT ( ( #89 ) ) GLOBAL_UNIT_ASSIGNED_CONTEXT ( ( #62, #120, #42 ) ) REPRESENTATION_CONTEXT ( 'NONE', 'WORKASPACE' ) );
#99 = SURFACE_SIDE_STYLE ('',( #115 ) ) ;
#100 = CARTESIAN_POINT ( 'NONE',  ( 32.00000000000000000, 0.0000000000000000000, -1.900000000000004574 ) ) ;
#101 = FILL_AREA_STYLE_COLOUR ( '', #57 ) ;
#102 = CLOSED_SHELL ( 'NONE', ( #38, #191, #114 ) ) ;
#103 = FILL_AREA_STYLE_COLOUR ( '', #63 ) ;
#104 = PRESENTATION_STYLE_ASSIGNMENT (( #26 ) ) ;
#105 = DIRECTION ( 'NONE',  ( -1.000000000000000000, -0.0000000000000000000, -0.0000000000000000000 ) ) ;
#106 = VERTEX_POINT ( 'NONE', #140 ) ;
#107 = PRESENTATION_LAYER_ASSIGNMENT (  '', '', ( #4 ) ) ;
#108 =( GEOMETRIC_REPRESENTATION_CONTEXT ( 3 ) GLOBAL_UNCERTAINTY_ASSIGNED_CONTEXT ( ( #66 ) ) GLOBAL_UNIT_ASSIGNED_CONTEXT ( ( #117, #143, #167 ) ) REPRESENTATION_CONTEXT ( 'NONE', 'WORKASPACE' ) );
#109 = VERTEX_POINT ( 'NONE', #100 ) ;
#110 = ORIENTED_EDGE ( 'NONE', *, *, #175, .F. ) ;
#111 = PRESENTATION_LAYER_ASSIGNMENT (  '', '', ( #188 ) ) ;
#112 = FACE_OUTER_BOUND ( 'NONE', #131, .T. ) ;
#113 =( GEOMETRIC_REPRESENTATION_CONTEXT ( 3 ) GLOBAL_UNCERTAINTY_ASSIGNED_CONTEXT ( ( #203 ) ) GLOBAL_UNIT_ASSIGNED_CONTEXT ( ( #13, #41, #171 ) ) REPRESENTATION_CONTEXT ( 'NONE', 'WORKASPACE' ) );
#114 = ADVANCED_FACE ( 'NONE', ( #195 ), #202, .T. ) ;
#115 = SURFACE_STYLE_FILL_AREA ( #95 ) ;
#116 = VERTEX_POINT ( 'NONE', #208 ) ;
#117 =( LENGTH_UNIT ( ) NAMED_UNIT ( * ) SI_UNIT ( .MILLI., .METRE. ) );
#118 = MECHANICAL_DESIGN_GEOMETRIC_PRESENTATION_REPRESENTATION (  '', ( #4 ), #108 ) ;
#119 = FACE_OUTER_BOUND ( 'NONE', #32, .T. ) ;
#120 =( NAMED_UNIT ( * ) PLANE_ANGLE_UNIT ( ) SI_UNIT ( $, .RADIAN. ) );
#121 = DIRECTION ( 'NONE',  ( 0.0000000000000000000, 0.0000000000000000000, 1.000000000000000000 ) ) ;
#122 = CARTESIAN_POINT ( 'NONE',  ( 0.0000000000000000000, 0.0000000000000000000, 0.0000000000000000000 ) ) ;
#123 = EDGE_LOOP ( 'NONE', ( #69 ) ) ;
#124 = DIRECTION ( 'NONE',  ( 0.0000000000000000000, 0.0000000000000000000, -1.000000000000000000 ) ) ;
#125 = AXIS2_PLACEMENT_3D ( 'NONE', #16, #97, #60 ) ;
#126 = STYLED_ITEM ( 'NONE', ( #75 ), #213 ) ;
#127 = CARTESIAN_POINT ( 'NONE',  ( 0.3799999999999829070, 0.0000000000000000000, 0.0000000000000000000 ) ) ;
#128 = UNCERTAINTY_MEASURE_WITH_UNIT (LENGTH_MEASURE( 1.000000000000000082E-05 ), #25, 'distance_accuracy_value', 'NONE');
#129 = EDGE_LOOP ( 'NONE', ( #73 ) ) ;
#130 = MECHANICAL_DESIGN_GEOMETRIC_PRESENTATION_REPRESENTATION (  '', ( #151 ), #134 ) ;
#131 = EDGE_LOOP ( 'NONE', ( #35 ) ) ;
#132 = COLOUR_RGB ( '',0.7921568627450980005, 0.8196078431372548767, 0.9333333333333333481 ) ;
#133 = PRESENTATION_STYLE_ASSIGNMENT (( #144 ) ) ;
#134 =( GEOMETRIC_REPRESENTATION_CONTEXT ( 3 ) GLOBAL_UNCERTAINTY_ASSIGNED_CONTEXT ( ( #44 ) ) GLOBAL_UNIT_ASSIGNED_CONTEXT ( ( #31, #159, #46 ) ) REPRESENTATION_CONTEXT ( 'NONE', 'WORKASPACE' ) );
#135 = CIRCLE ( 'NONE', #148, 1.520000000000014451 ) ;
#136 = PLANE ( 'NONE',  #205 ) ;
#137 = SURFACE_STYLE_USAGE ( .BOTH. , #9 ) ;
#138 = PRODUCT_DEFINITION ( 'UNKNOWN', '', #212, #53 ) ;
#139 = PRESENTATION_LAYER_ASSIGNMENT (  '', '', ( #83 ) ) ;
#140 = CARTESIAN_POINT ( 'NONE',  ( 74.21299423149110908, 0.0000000000000000000, 1.900000000000008793 ) ) ;
#141 =( NAMED_UNIT ( * ) SI_UNIT ( $, .STERADIAN. ) SOLID_ANGLE_UNIT ( ) );
#142 = PRODUCT_RELATED_PRODUCT_CATEGORY ( 'part', '', ( #3 ) ) ;
#143 =( NAMED_UNIT ( * ) PLANE_ANGLE_UNIT ( ) SI_UNIT ( $, .RADIAN. ) );
#144 = SURFACE_STYLE_USAGE ( .BOTH. , #176 ) ;
#145 = DIRECTION ( 'NONE',  ( 0.0000000000000000000, 0.0000000000000000000, 1.000000000000000000 ) ) ;
#146 = PRESENTATION_STYLE_ASSIGNMENT (( #30 ) ) ;
#147 = MECHANICAL_DESIGN_GEOMETRIC_PRESENTATION_REPRESENTATION (  '', ( #126 ), #98 ) ;
#148 = AXIS2_PLACEMENT_3D ( 'NONE', #78, #168, #40 ) ;
#149 = FACE_BOUND ( 'NONE', #129, .T. ) ;
#150 = AXIS2_PLACEMENT_3D ( 'NONE', #187, #65, #177 ) ;
#151 = STYLED_ITEM ( 'NONE', ( #133 ), #193 ) ;
#152 = DIRECTION ( 'NONE',  ( 0.0000000000000000000, 0.0000000000000000000, -1.000000000000000000 ) ) ;
#153 =( NAMED_UNIT ( * ) PLANE_ANGLE_UNIT ( ) SI_UNIT ( $, .RADIAN. ) );
#154 = DIRECTION ( 'NONE',  ( 0.0000000000000000000, 0.0000000000000000000, -1.000000000000000000 ) ) ;
#155 = CIRCLE ( 'NONE', #86, 1.900000000000004574 ) ;
#156 = CARTESIAN_POINT ( 'NONE',  ( 32.00000000000000000, 0.0000000000000000000, -1.900000000000004574 ) ) ;
#157 = EDGE_LOOP ( 'NONE', ( #49 ) ) ;
#158 =( LENGTH_UNIT ( ) NAMED_UNIT ( * ) SI_UNIT ( .MILLI., .METRE. ) );
#159 =( NAMED_UNIT ( * ) PLANE_ANGLE_UNIT ( ) SI_UNIT ( $, .RADIAN. ) );
#160 = CARTESIAN_POINT ( 'NONE',  ( -1.163414459189985682E-16, 0.0000000000000000000, -1.520000000000014451 ) ) ;
#161 = AXIS2_PLACEMENT_3D ( 'NONE', #170, #28, #56 ) ;
#162 = PRESENTATION_LAYER_ASSIGNMENT (  '', '', ( #151 ) ) ;
#163 =( GEOMETRIC_REPRESENTATION_CONTEXT ( 3 ) GLOBAL_UNCERTAINTY_ASSIGNED_CONTEXT ( ( #128 ) ) GLOBAL_UNIT_ASSIGNED_CONTEXT ( ( #25, #153, #11 ) ) REPRESENTATION_CONTEXT ( 'NONE', 'WORKASPACE' ) );
#164 = EDGE_LOOP ( 'NONE', ( #36 ) ) ;
#165 = ADVANCED_FACE ( 'NONE', ( #112, #149 ), #51, .T. ) ;
#166 = PLANE ( 'NONE',  #6 ) ;
#167 =( NAMED_UNIT ( * ) SI_UNIT ( $, .STERADIAN. ) SOLID_ANGLE_UNIT ( ) );
#168 = DIRECTION ( 'NONE',  ( -1.000000000000000000, -0.0000000000000000000, -0.0000000000000000000 ) ) ;
#169 = PRESENTATION_LAYER_ASSIGNMENT (  '', '', ( #126 ) ) ;
#170 = CARTESIAN_POINT ( 'NONE',  ( -925.0000000000000000, 0.0000000000000000000, 0.0000000000000000000 ) ) ;
#171 =( NAMED_UNIT ( * ) SI_UNIT ( $, .STERADIAN. ) SOLID_ANGLE_UNIT ( ) );
#172 = EDGE_CURVE ( 'NONE', #47, #47, #135, .T. ) ;
#173 =( GEOMETRIC_REPRESENTATION_CONTEXT ( 3 ) GLOBAL_UNCERTAINTY_ASSIGNED_CONTEXT ( ( #81 ) ) GLOBAL_UNIT_ASSIGNED_CONTEXT ( ( #158, #14, #141 ) ) REPRESENTATION_CONTEXT ( 'NONE', 'WORKASPACE' ) );
#174 = SURFACE_STYLE_USAGE ( .BOTH. , #85 ) ;
#175 = EDGE_CURVE ( 'NONE', #70, #70, #155, .T. ) ;
#176 = SURFACE_SIDE_STYLE ('',( #7 ) ) ;
#177 = DIRECTION ( 'NONE',  ( 0.0000000000000000000, 0.0000000000000000000, -1.000000000000000000 ) ) ;
#178 = EDGE_CURVE ( 'NONE', #106, #106, #59, .T. ) ;
#179 = EDGE_CURVE ( 'NONE', #109, #109, #24, .T. ) ;
#180 = ADVANCED_FACE ( 'NONE', ( #77, #92 ), #1, .T. ) ;
#181 = MECHANICAL_DESIGN_GEOMETRIC_PRESENTATION_REPRESENTATION (  '', ( #83 ), #173 ) ;
#182 = MECHANICAL_DESIGN_GEOMETRIC_PRESENTATION_REPRESENTATION (  '', ( #188 ), #163 ) ;
#183 = FILL_AREA_STYLE ('',( #101 ) ) ;
#184 = PRODUCT_DEFINITION_SHAPE ( 'NONE', 'NONE',  #138 ) ;
#185 = DIRECTION ( 'NONE',  ( 1.000000000000000000, 0.0000000000000000000, 0.0000000000000000000 ) ) ;
#186 = DIRECTION ( 'NONE',  ( -1.000000000000000000, -0.0000000000000000000, -0.0000000000000000000 ) ) ;
#187 = CARTESIAN_POINT ( 'NONE',  ( 32.00000000000000000, 0.0000000000000000000, 0.0000000000000000000 ) ) ;
#188 = STYLED_ITEM ( 'NONE', ( #52 ), #43 ) ;
#189 = SURFACE_STYLE_FILL_AREA ( #88 ) ;
#190 = EDGE_CURVE ( 'NONE', #116, #116, #54, .T. ) ;
#191 = ADVANCED_FACE ( 'NONE', ( #196, #8 ), #68, .T. ) ;
#192 = CARTESIAN_POINT ( 'NONE',  ( 32.00000000000000000, 0.0000000000000000000, 0.0000000000000000000 ) ) ;
#193 = ADVANCED_BREP_SHAPE_REPRESENTATION ( '03-1644', ( #213, #43, #27 ), #113 ) ;
#194 = FILL_AREA_STYLE_COLOUR ( '', #132 ) ;
#195 = FACE_OUTER_BOUND ( 'NONE', #123, .T. ) ;
#196 = FACE_OUTER_BOUND ( 'NONE', #20, .T. ) ;
#197 = CARTESIAN_POINT ( 'NONE',  ( 0.0000000000000000000, 0.0000000000000000000, 0.0000000000000000000 ) ) ;
#198 = DIRECTION ( 'NONE',  ( 1.000000000000000000, 0.0000000000000000000, 0.0000000000000000000 ) ) ;
#199 = APPLICATION_CONTEXT ( 'automotive_design' ) ;
#200 = PLANE ( 'NONE',  #18 ) ;
#201 = SURFACE_SIDE_STYLE ('',( #189 ) ) ;
#202 = CONICAL_SURFACE ( 'NONE', #161, 2414.213562373081004, 1.178097245096170420 ) ;
#203 = UNCERTAINTY_MEASURE_WITH_UNIT (LENGTH_MEASURE( 1.000000000000000082E-05 ), #13, 'distance_accuracy_value', 'NONE');
#204 = FILL_AREA_STYLE ('',( #194 ) ) ;
#205 = AXIS2_PLACEMENT_3D ( 'NONE', #58, #80, #152 ) ;
#206 = CARTESIAN_POINT ( 'NONE',  ( 32.00000000000000000, 0.0000000000000000000, 0.0000000000000000000 ) ) ;
#207 = DIRECTION ( 'NONE',  ( 0.0000000000000000000, 0.0000000000000000000, -1.000000000000000000 ) ) ;
#208 = CARTESIAN_POINT ( 'NONE',  ( 0.3799999999999829070, 0.0000000000000000000, -1.900000000000004574 ) ) ;
#209 = DIRECTION ( 'NONE',  ( 0.0000000000000000000, 0.0000000000000000000, 1.000000000000000000 ) ) ;
#210 = DIRECTION ( 'NONE',  ( -1.000000000000000000, -0.0000000000000000000, -0.0000000000000000000 ) ) ;
#211 = DIRECTION ( 'NONE',  ( 1.000000000000000000, 0.0000000000000000000, 0.0000000000000000000 ) ) ;
#212 = PRODUCT_DEFINITION_FORMATION_WITH_SPECIFIED_SOURCE ( 'ANY', '', #3, .NOT_KNOWN. ) ;
#213 = MANIFOLD_SOLID_BREP ( 'ºÐÇÒ2[1]', #61 ) ;
ENDSEC;
END-ISO-10303-21;
