ISO-10303-21;
HEADER;
FILE_DESCRIPTION (( 'STEP AP214' ),
    '1' );
FILE_NAME ('03-1647.STEP',
    '2021-10-01T05:07:23',
    ( 'USER' ),
    ( '' ),
    'SwSTEP 2.0',
    'SolidWorks 2018',
    '' );
FILE_SCHEMA (( 'AUTOMOTIVE_DESIGN' ));
ENDSEC;

DATA;
#1 = EDGE_LOOP ( 'NONE', ( #19 ) ) ;
#3 = ADVANCED_FACE ( 'NONE', ( #12, #14 ), #71, .T. ) ;
#2 = ORIENTED_EDGE ( 'NONE', *, *, #170, .T. ) ;
#4 = CARTESIAN_POINT ( 'NONE',  ( -1.255262969126037093E-16, 0.0000000000000000000, 0.0000000000000000000 ) ) ;
#5 = DIRECTION ( 'NONE',  ( 0.0000000000000000000, 0.0000000000000000000, -1.000000000000000000 ) ) ;
#6 =( NAMED_UNIT ( * ) SI_UNIT ( $, .STERADIAN. ) SOLID_ANGLE_UNIT ( ) );
#7 =( NAMED_UNIT ( * ) SI_UNIT ( $, .STERADIAN. ) SOLID_ANGLE_UNIT ( ) );
#8 = SURFACE_SIDE_STYLE ('',( #52 ) ) ;
#9 = DIRECTION ( 'NONE',  ( 0.0000000000000000000, 0.0000000000000000000, -1.000000000000000000 ) ) ;
#10 = AXIS2_PLACEMENT_3D ( 'NONE', #42, #24, #141 ) ;
#11 = FILL_AREA_STYLE_COLOUR ( '', #153 ) ;
#12 = FACE_OUTER_BOUND ( 'NONE', #140, .T. ) ;
#13 = EDGE_LOOP ( 'NONE', ( #171 ) ) ;
#14 = FACE_OUTER_BOUND ( 'NONE', #40, .T. ) ;
#15 = EDGE_CURVE ( 'NONE', #81, #81, #64, .T. ) ;
#16 = PRESENTATION_LAYER_ASSIGNMENT (  '', '', ( #200 ) ) ;
#17 = EDGE_LOOP ( 'NONE', ( #80 ) ) ;
#18 = SURFACE_STYLE_FILL_AREA ( #182 ) ;
#19 = ORIENTED_EDGE ( 'NONE', *, *, #68, .F. ) ;
#20 = CARTESIAN_POINT ( 'NONE',  ( 0.0000000000000000000, 0.0000000000000000000, 0.0000000000000000000 ) ) ;
#21 = ORIENTED_EDGE ( 'NONE', *, *, #207, .T. ) ;
#22 = STYLED_ITEM ( 'NONE', ( #132 ), #3 ) ;
#23 = COLOUR_RGB ( '',0.7921568627450980005, 0.8196078431372548767, 0.9333333333333333481 ) ;
#24 = DIRECTION ( 'NONE',  ( 1.000000000000000000, 0.0000000000000000000, 0.0000000000000000000 ) ) ;
#25 = ORIENTED_EDGE ( 'NONE', *, *, #15, .F. ) ;
#26 = DIRECTION ( 'NONE',  ( 0.0000000000000000000, 0.0000000000000000000, -1.000000000000000000 ) ) ;
#27 = SURFACE_SIDE_STYLE ('',( #51 ) ) ;
#28 = AXIS2_PLACEMENT_3D ( 'NONE', #59, #173, #73 ) ;
#29 = ORIENTED_EDGE ( 'NONE', *, *, #193, .T. ) ;
#30 = DIRECTION ( 'NONE',  ( 0.0000000000000000000, 0.0000000000000000000, 1.000000000000000000 ) ) ;
#31 = CARTESIAN_POINT ( 'NONE',  ( 32.00000000000000000, 0.0000000000000000000, 0.0000000000000000000 ) ) ;
#32 =( LENGTH_UNIT ( ) NAMED_UNIT ( * ) SI_UNIT ( .MILLI., .METRE. ) );
#33 = CARTESIAN_POINT ( 'NONE',  ( 32.00000000000000000, 0.0000000000000000000, -2.050000000000004263 ) ) ;
#34 = SURFACE_SIDE_STYLE ('',( #100 ) ) ;
#35 = FACE_OUTER_BOUND ( 'NONE', #17, .T. ) ;
#36 = ORIENTED_EDGE ( 'NONE', *, *, #15, .T. ) ;
#37 = STYLED_ITEM ( 'NONE', ( #76 ), #70 ) ;
#38 =( NAMED_UNIT ( * ) PLANE_ANGLE_UNIT ( ) SI_UNIT ( $, .RADIAN. ) );
#39 = AXIS2_PLACEMENT_3D ( 'NONE', #158, #69, #88 ) ;
#40 = EDGE_LOOP ( 'NONE', ( #2 ) ) ;
#41 = UNCERTAINTY_MEASURE_WITH_UNIT (LENGTH_MEASURE( 1.000000000000000082E-05 ), #109, 'distance_accuracy_value', 'NONE');
#42 = CARTESIAN_POINT ( 'NONE',  ( 0.4100000000000001421, 0.0000000000000000000, 0.0000000000000000000 ) ) ;
#43 =( NAMED_UNIT ( * ) SI_UNIT ( $, .STERADIAN. ) SOLID_ANGLE_UNIT ( ) );
#44 = PLANE ( 'NONE',  #167 ) ;
#45 = FILL_AREA_STYLE_COLOUR ( '', #108 ) ;
#46 =( NAMED_UNIT ( * ) SI_UNIT ( $, .STERADIAN. ) SOLID_ANGLE_UNIT ( ) );
#47 = CARTESIAN_POINT ( 'NONE',  ( 0.0000000000000000000, 0.0000000000000000000, 0.0000000000000000000 ) ) ;
#48 =( LENGTH_UNIT ( ) NAMED_UNIT ( * ) SI_UNIT ( .MILLI., .METRE. ) );
#49 = AXIS2_PLACEMENT_3D ( 'NONE', #4, #67, #56 ) ;
#50 = VERTEX_POINT ( 'NONE', #33 ) ;
#51 = SURFACE_STYLE_FILL_AREA ( #146 ) ;
#52 = SURFACE_STYLE_FILL_AREA ( #114 ) ;
#53 = CARTESIAN_POINT ( 'NONE',  ( -925.0000000000000000, 0.0000000000000000000, 0.0000000000000000000 ) ) ;
#54 = CIRCLE ( 'NONE', #10, 2.050000000000004263 ) ;
#55 = CIRCLE ( 'NONE', #166, 2.050000000000004263 ) ;
#56 = DIRECTION ( 'NONE',  ( 0.0000000000000000000, 0.0000000000000000000, -1.000000000000000000 ) ) ;
#57 = ADVANCED_FACE ( 'NONE', ( #66 ), #44, .F. ) ;
#58 =( LENGTH_UNIT ( ) NAMED_UNIT ( * ) SI_UNIT ( .MILLI., .METRE. ) );
#59 = CARTESIAN_POINT ( 'NONE',  ( 74.15086219713514026, 0.0000000000000000000, 0.0000000000000000000 ) ) ;
#60 = CARTESIAN_POINT ( 'NONE',  ( -1.255262969126037093E-16, 0.0000000000000000000, 0.0000000000000000000 ) ) ;
#61 =( NAMED_UNIT ( * ) SI_UNIT ( $, .STERADIAN. ) SOLID_ANGLE_UNIT ( ) );
#62 = SHAPE_DEFINITION_REPRESENTATION ( #91, #169 ) ;
#63 = AXIS2_PLACEMENT_3D ( 'NONE', #60, #174, #74 ) ;
#64 = CIRCLE ( 'NONE', #209, 2.050000000000004263 ) ;
#65 = SURFACE_STYLE_USAGE ( .BOTH. , #147 ) ;
#66 = FACE_OUTER_BOUND ( 'NONE', #123, .T. ) ;
#67 = DIRECTION ( 'NONE',  ( 1.000000000000000000, 0.0000000000000000000, 0.0000000000000000000 ) ) ;
#68 = EDGE_CURVE ( 'NONE', #89, #89, #54, .T. ) ;
#69 = DIRECTION ( 'NONE',  ( -1.000000000000000000, -0.0000000000000000000, -0.0000000000000000000 ) ) ;
#70 = ADVANCED_FACE ( 'NONE', ( #35 ), #181, .T. ) ;
#71 = CYLINDRICAL_SURFACE ( 'NONE', #184, 2.050000000000004263 ) ;
#72 = COLOUR_RGB ( '',1.000000000000000000, 1.000000000000000000, 0.0000000000000000000 ) ;
#73 = DIRECTION ( 'NONE',  ( 0.0000000000000000000, 0.0000000000000000000, 1.000000000000000000 ) ) ;
#74 = DIRECTION ( 'NONE',  ( 0.0000000000000000000, 0.0000000000000000000, -1.000000000000000000 ) ) ;
#75 =( NAMED_UNIT ( * ) SI_UNIT ( $, .STERADIAN. ) SOLID_ANGLE_UNIT ( ) );
#76 = PRESENTATION_STYLE_ASSIGNMENT (( #142 ) ) ;
#77 =( GEOMETRIC_REPRESENTATION_CONTEXT ( 3 ) GLOBAL_UNCERTAINTY_ASSIGNED_CONTEXT ( ( #154 ) ) GLOBAL_UNIT_ASSIGNED_CONTEXT ( ( #202, #112, #7 ) ) REPRESENTATION_CONTEXT ( 'NONE', 'WORKASPACE' ) );
#78 = DIRECTION ( 'NONE',  ( 0.0000000000000000000, 0.0000000000000000000, 1.000000000000000000 ) ) ;
#79 = EDGE_LOOP ( 'NONE', ( #25 ) ) ;
#80 = ORIENTED_EDGE ( 'NONE', *, *, #170, .F. ) ;
#81 = VERTEX_POINT ( 'NONE', #204 ) ;
#82 = FACE_OUTER_BOUND ( 'NONE', #103, .T. ) ;
#83 = DIRECTION ( 'NONE',  ( -1.000000000000000000, -0.0000000000000000000, -0.0000000000000000000 ) ) ;
#84 = PRESENTATION_STYLE_ASSIGNMENT (( #95 ) ) ;
#85 = MECHANICAL_DESIGN_GEOMETRIC_PRESENTATION_REPRESENTATION (  '', ( #200 ), #77 ) ;
#86 = DIRECTION ( 'NONE',  ( 1.000000000000000000, 0.0000000000000000000, 0.0000000000000000000 ) ) ;
#87 = ADVANCED_FACE ( 'NONE', ( #113, #121 ), #178, .T. ) ;
#88 = DIRECTION ( 'NONE',  ( 0.0000000000000000000, 0.0000000000000000000, 1.000000000000000000 ) ) ;
#89 = VERTEX_POINT ( 'NONE', #177 ) ;
#90 = FACE_BOUND ( 'NONE', #210, .T. ) ;
#91 = PRODUCT_DEFINITION_SHAPE ( 'NONE', 'NONE',  #124 ) ;
#92 = PLANE ( 'NONE',  #102 ) ;
#93 = PRESENTATION_STYLE_ASSIGNMENT (( #130 ) ) ;
#94 = UNCERTAINTY_MEASURE_WITH_UNIT (LENGTH_MEASURE( 1.000000000000000082E-05 ), #58, 'distance_accuracy_value', 'NONE');
#95 = SURFACE_STYLE_USAGE ( .BOTH. , #188 ) ;
#96 = DIRECTION ( 'NONE',  ( 0.0000000000000000000, 0.0000000000000000000, -1.000000000000000000 ) ) ;
#97 = ORIENTED_EDGE ( 'NONE', *, *, #193, .F. ) ;
#98 = CARTESIAN_POINT ( 'NONE',  ( 74.15086219713514026, 0.0000000000000000000, 2.050000000000008704 ) ) ;
#99 = APPLICATION_PROTOCOL_DEFINITION ( 'draft international standard', 'automotive_design', 1998, #117 ) ;
#100 = SURFACE_STYLE_FILL_AREA ( #133 ) ;
#101 = PRODUCT_CONTEXT ( 'NONE', #117, 'mechanical' ) ;
#102 = AXIS2_PLACEMENT_3D ( 'NONE', #186, #110, #5 ) ;
#103 = EDGE_LOOP ( 'NONE', ( #128 ) ) ;
#104 = PRODUCT_RELATED_PRODUCT_CATEGORY ( 'part', '', ( #107 ) ) ;
#105 = FACE_OUTER_BOUND ( 'NONE', #1, .T. ) ;
#106 = AXIS2_PLACEMENT_3D ( 'NONE', #53, #157, #160 ) ;
#107 = PRODUCT ( '03-1647', '03-1647', '', ( #101 ) ) ;
#108 = COLOUR_RGB ( '',0.7921568627450980005, 0.8196078431372548767, 0.9333333333333333481 ) ;
#109 =( LENGTH_UNIT ( ) NAMED_UNIT ( * ) SI_UNIT ( .MILLI., .METRE. ) );
#110 = DIRECTION ( 'NONE',  ( 1.000000000000000000, 0.0000000000000000000, 0.0000000000000000000 ) ) ;
#111 = PRODUCT_DEFINITION_FORMATION_WITH_SPECIFIED_SOURCE ( 'ANY', '', #107, .NOT_KNOWN. ) ;
#112 =( NAMED_UNIT ( * ) PLANE_ANGLE_UNIT ( ) SI_UNIT ( $, .RADIAN. ) );
#113 = FACE_OUTER_BOUND ( 'NONE', #13, .T. ) ;
#114 = FILL_AREA_STYLE ('',( #129 ) ) ;
#115 = AXIS2_PLACEMENT_3D ( 'NONE', #31, #189, #96 ) ;
#116 = DIRECTION ( 'NONE',  ( 1.000000000000000000, 0.0000000000000000000, 0.0000000000000000000 ) ) ;
#117 = APPLICATION_CONTEXT ( 'automotive_design' ) ;
#118 = CIRCLE ( 'NONE', #63, 1.640000000000002567 ) ;
#119 = APPLICATION_PROTOCOL_DEFINITION ( 'draft international standard', 'automotive_design', 1998, #206 ) ;
#120 = CLOSED_SHELL ( 'NONE', ( #87, #57, #145, #159 ) ) ;
#121 = FACE_OUTER_BOUND ( 'NONE', #79, .T. ) ;
#122 = MECHANICAL_DESIGN_GEOMETRIC_PRESENTATION_REPRESENTATION (  '', ( #37 ), #144 ) ;
#123 = EDGE_LOOP ( 'NONE', ( #29 ) ) ;
#124 = PRODUCT_DEFINITION ( 'UNKNOWN', '', #111, #208 ) ;
#125 = PRESENTATION_LAYER_ASSIGNMENT (  '', '', ( #155 ) ) ;
#126 = FACE_OUTER_BOUND ( 'NONE', #168, .T. ) ;
#127 = DIRECTION ( 'NONE',  ( 1.000000000000000000, 0.0000000000000000000, 0.0000000000000000000 ) ) ;
#128 = ORIENTED_EDGE ( 'NONE', *, *, #207, .F. ) ;
#129 = FILL_AREA_STYLE_COLOUR ( '', #23 ) ;
#130 = SURFACE_STYLE_USAGE ( .BOTH. , #8 ) ;
#131 = CARTESIAN_POINT ( 'NONE',  ( -1.255262969126037093E-16, 0.0000000000000000000, -1.640000000000002567 ) ) ;
#132 = PRESENTATION_STYLE_ASSIGNMENT (( #65 ) ) ;
#133 = FILL_AREA_STYLE ('',( #11 ) ) ;
#134 = UNCERTAINTY_MEASURE_WITH_UNIT (LENGTH_MEASURE( 1.000000000000000082E-05 ), #32, 'distance_accuracy_value', 'NONE');
#135 = AXIS2_PLACEMENT_3D ( 'NONE', #47, #78, #192 ) ;
#136 =( GEOMETRIC_REPRESENTATION_CONTEXT ( 3 ) GLOBAL_UNCERTAINTY_ASSIGNED_CONTEXT ( ( #134 ) ) GLOBAL_UNIT_ASSIGNED_CONTEXT ( ( #32, #149, #46 ) ) REPRESENTATION_CONTEXT ( 'NONE', 'WORKASPACE' ) );
#137 = CONICAL_SURFACE ( 'NONE', #49, 1.640000000000002567, 0.7853981633974499443 ) ;
#138 = FILL_AREA_STYLE_COLOUR ( '', #139 ) ;
#139 = COLOUR_RGB ( '',1.000000000000000000, 1.000000000000000000, 0.0000000000000000000 ) ;
#140 = EDGE_LOOP ( 'NONE', ( #21 ) ) ;
#141 = DIRECTION ( 'NONE',  ( 0.0000000000000000000, 0.0000000000000000000, -1.000000000000000000 ) ) ;
#142 = SURFACE_STYLE_USAGE ( .BOTH. , #27 ) ;
#143 = CIRCLE ( 'NONE', #28, 2.050000000000008704 ) ;
#144 =( GEOMETRIC_REPRESENTATION_CONTEXT ( 3 ) GLOBAL_UNCERTAINTY_ASSIGNED_CONTEXT ( ( #41 ) ) GLOBAL_UNIT_ASSIGNED_CONTEXT ( ( #109, #213, #43 ) ) REPRESENTATION_CONTEXT ( 'NONE', 'WORKASPACE' ) );
#145 = ADVANCED_FACE ( 'NONE', ( #105, #90 ), #137, .T. ) ;
#146 = FILL_AREA_STYLE ('',( #187 ) ) ;
#147 = SURFACE_SIDE_STYLE ('',( #18 ) ) ;
#148 = PLANE ( 'NONE',  #115 ) ;
#149 =( NAMED_UNIT ( * ) PLANE_ANGLE_UNIT ( ) SI_UNIT ( $, .RADIAN. ) );
#150 = MECHANICAL_DESIGN_GEOMETRIC_PRESENTATION_REPRESENTATION (  '', ( #155 ), #136 ) ;
#151 = SURFACE_STYLE_USAGE ( .BOTH. , #34 ) ;
#152 = VERTEX_POINT ( 'NONE', #98 ) ;
#153 = COLOUR_RGB ( '',0.7921568627450980005, 0.8196078431372548767, 0.9333333333333333481 ) ;
#154 = UNCERTAINTY_MEASURE_WITH_UNIT (LENGTH_MEASURE( 1.000000000000000082E-05 ), #202, 'distance_accuracy_value', 'NONE');
#155 = STYLED_ITEM ( 'NONE', ( #93 ), #201 ) ;
#156 = CLOSED_SHELL ( 'NONE', ( #199, #3, #70 ) ) ;
#157 = DIRECTION ( 'NONE',  ( -1.000000000000000000, -0.0000000000000000000, -0.0000000000000000000 ) ) ;
#158 = CARTESIAN_POINT ( 'NONE',  ( 0.0000000000000000000, 0.0000000000000000000, 0.0000000000000000000 ) ) ;
#159 = ADVANCED_FACE ( 'NONE', ( #126 ), #92, .T. ) ;
#160 = DIRECTION ( 'NONE',  ( 0.0000000000000000000, 0.0000000000000000000, 1.000000000000000000 ) ) ;
#161 = FILL_AREA_STYLE ('',( #45 ) ) ;
#162 = SURFACE_STYLE_FILL_AREA ( #161 ) ;
#163 =( NAMED_UNIT ( * ) PLANE_ANGLE_UNIT ( ) SI_UNIT ( $, .RADIAN. ) );
#164 = PRESENTATION_LAYER_ASSIGNMENT (  '', '', ( #22 ) ) ;
#165 =( GEOMETRIC_REPRESENTATION_CONTEXT ( 3 ) GLOBAL_UNCERTAINTY_ASSIGNED_CONTEXT ( ( #195 ) ) GLOBAL_UNIT_ASSIGNED_CONTEXT ( ( #48, #163, #61 ) ) REPRESENTATION_CONTEXT ( 'NONE', 'WORKASPACE' ) );
#166 = AXIS2_PLACEMENT_3D ( 'NONE', #205, #116, #9 ) ;
#167 = AXIS2_PLACEMENT_3D ( 'NONE', #198, #86, #185 ) ;
#168 = EDGE_LOOP ( 'NONE', ( #36 ) ) ;
#169 = ADVANCED_BREP_SHAPE_REPRESENTATION ( '03-1647', ( #201, #175, #135 ), #203 ) ;
#170 = EDGE_CURVE ( 'NONE', #152, #152, #143, .T. ) ;
#171 = ORIENTED_EDGE ( 'NONE', *, *, #68, .T. ) ;
#172 = CARTESIAN_POINT ( 'NONE',  ( 32.00000000000000000, 0.0000000000000000000, 0.0000000000000000000 ) ) ;
#173 = DIRECTION ( 'NONE',  ( -1.000000000000000000, -0.0000000000000000000, -0.0000000000000000000 ) ) ;
#174 = DIRECTION ( 'NONE',  ( -1.000000000000000000, -0.0000000000000000000, -0.0000000000000000000 ) ) ;
#175 = MANIFOLD_SOLID_BREP ( 'ºÐÇÒ2[2]', #156 ) ;
#176 = UNCERTAINTY_MEASURE_WITH_UNIT (LENGTH_MEASURE( 1.000000000000000082E-05 ), #190, 'distance_accuracy_value', 'NONE');
#177 = CARTESIAN_POINT ( 'NONE',  ( 0.4100000000000001421, 0.0000000000000000000, -2.050000000000004263 ) ) ;
#178 = CYLINDRICAL_SURFACE ( 'NONE', #39, 2.050000000000004263 ) ;
#179 =( NAMED_UNIT ( * ) PLANE_ANGLE_UNIT ( ) SI_UNIT ( $, .RADIAN. ) );
#180 = PRESENTATION_LAYER_ASSIGNMENT (  '', '', ( #37 ) ) ;
#181 = CONICAL_SURFACE ( 'NONE', #106, 2414.213562373069180, 1.178097245096168644 ) ;
#182 = FILL_AREA_STYLE ('',( #138 ) ) ;
#183 = PRESENTATION_LAYER_ASSIGNMENT (  '', '', ( #211 ) ) ;
#184 = AXIS2_PLACEMENT_3D ( 'NONE', #20, #83, #30 ) ;
#185 = DIRECTION ( 'NONE',  ( 0.0000000000000000000, 0.0000000000000000000, -1.000000000000000000 ) ) ;
#186 = CARTESIAN_POINT ( 'NONE',  ( 32.00000000000000000, 0.0000000000000000000, 0.0000000000000000000 ) ) ;
#187 = FILL_AREA_STYLE_COLOUR ( '', #72 ) ;
#188 = SURFACE_SIDE_STYLE ('',( #162 ) ) ;
#189 = DIRECTION ( 'NONE',  ( 1.000000000000000000, 0.0000000000000000000, 0.0000000000000000000 ) ) ;
#190 =( LENGTH_UNIT ( ) NAMED_UNIT ( * ) SI_UNIT ( .MILLI., .METRE. ) );
#191 = PRESENTATION_STYLE_ASSIGNMENT (( #151 ) ) ;
#192 = DIRECTION ( 'NONE',  ( 1.000000000000000000, 0.0000000000000000000, 0.0000000000000000000 ) ) ;
#193 = EDGE_CURVE ( 'NONE', #196, #196, #118, .T. ) ;
#194 = MECHANICAL_DESIGN_GEOMETRIC_PRESENTATION_REPRESENTATION (  '', ( #211 ), #165 ) ;
#195 = UNCERTAINTY_MEASURE_WITH_UNIT (LENGTH_MEASURE( 1.000000000000000082E-05 ), #48, 'distance_accuracy_value', 'NONE');
#196 = VERTEX_POINT ( 'NONE', #131 ) ;
#197 =( GEOMETRIC_REPRESENTATION_CONTEXT ( 3 ) GLOBAL_UNCERTAINTY_ASSIGNED_CONTEXT ( ( #94 ) ) GLOBAL_UNIT_ASSIGNED_CONTEXT ( ( #58, #38, #6 ) ) REPRESENTATION_CONTEXT ( 'NONE', 'WORKASPACE' ) );
#198 = CARTESIAN_POINT ( 'NONE',  ( -1.255262969126037093E-16, 2.049999999999999822, 0.0000000000000000000 ) ) ;
#199 = ADVANCED_FACE ( 'NONE', ( #82 ), #148, .F. ) ;
#200 = STYLED_ITEM ( 'NONE', ( #84 ), #175 ) ;
#201 = MANIFOLD_SOLID_BREP ( 'ºÐÇÒ2[1]', #120 ) ;
#202 =( LENGTH_UNIT ( ) NAMED_UNIT ( * ) SI_UNIT ( .MILLI., .METRE. ) );
#203 =( GEOMETRIC_REPRESENTATION_CONTEXT ( 3 ) GLOBAL_UNCERTAINTY_ASSIGNED_CONTEXT ( ( #176 ) ) GLOBAL_UNIT_ASSIGNED_CONTEXT ( ( #190, #179, #75 ) ) REPRESENTATION_CONTEXT ( 'NONE', 'WORKASPACE' ) );
#204 = CARTESIAN_POINT ( 'NONE',  ( 32.00000000000000000, 0.0000000000000000000, -2.050000000000004263 ) ) ;
#205 = CARTESIAN_POINT ( 'NONE',  ( 32.00000000000000000, 0.0000000000000000000, 0.0000000000000000000 ) ) ;
#206 = APPLICATION_CONTEXT ( 'automotive_design' ) ;
#207 = EDGE_CURVE ( 'NONE', #50, #50, #55, .T. ) ;
#208 = PRODUCT_DEFINITION_CONTEXT ( 'detailed design', #206, 'design' ) ;
#209 = AXIS2_PLACEMENT_3D ( 'NONE', #172, #127, #26 ) ;
#210 = EDGE_LOOP ( 'NONE', ( #97 ) ) ;
#211 = STYLED_ITEM ( 'NONE', ( #191 ), #169 ) ;
#212 = MECHANICAL_DESIGN_GEOMETRIC_PRESENTATION_REPRESENTATION (  '', ( #22 ), #197 ) ;
#213 =( NAMED_UNIT ( * ) PLANE_ANGLE_UNIT ( ) SI_UNIT ( $, .RADIAN. ) );
ENDSEC;
END-ISO-10303-21;
