ISO-10303-21;
HEADER;
FILE_DESCRIPTION (( 'STEP AP214' ),
    '1' );
FILE_NAME ('03-1648.STEP',
    '2021-10-01T05:27:17',
    ( 'USER' ),
    ( '' ),
    'SwSTEP 2.0',
    'SolidWorks 2018',
    '' );
FILE_SCHEMA (( 'AUTOMOTIVE_DESIGN' ));
ENDSEC;

DATA;
#1 = CARTESIAN_POINT ( 'NONE',  ( 32.00000000000000000, 0.0000000000000000000, -2.100000000000004530 ) ) ;
#2 =( NAMED_UNIT ( * ) PLANE_ANGLE_UNIT ( ) SI_UNIT ( $, .RADIAN. ) );
#3 = FACE_OUTER_BOUND ( 'NONE', #24, .T. ) ;
#4 = CARTESIAN_POINT ( 'NONE',  ( -1.285879139104721225E-16, 0.0000000000000000000, 0.0000000000000000000 ) ) ;
#5 = EDGE_LOOP ( 'NONE', ( #46 ) ) ;
#6 = UNCERTAINTY_MEASURE_WITH_UNIT (LENGTH_MEASURE( 1.000000000000000082E-05 ), #43, 'distance_accuracy_value', 'NONE');
#7 = CONICAL_SURFACE ( 'NONE', #176, 1.680000000000001048, 0.7853981633974492782 ) ;
#8 = EDGE_CURVE ( 'NONE', #190, #190, #16, .T. ) ;
#9 = MECHANICAL_DESIGN_GEOMETRIC_PRESENTATION_REPRESENTATION (  '', ( #157 ), #153 ) ;
#10 = ADVANCED_FACE ( 'NONE', ( #42 ), #104, .F. ) ;
#11 = VERTEX_POINT ( 'NONE', #53 ) ;
#12 = COLOUR_RGB ( '',1.000000000000000000, 1.000000000000000000, 0.0000000000000000000 ) ;
#13 = SURFACE_SIDE_STYLE ('',( #55 ) ) ;
#14 = CARTESIAN_POINT ( 'NONE',  ( 32.00000000000000000, 0.0000000000000000000, 0.0000000000000000000 ) ) ;
#15 = DIRECTION ( 'NONE',  ( -1.000000000000000000, -0.0000000000000000000, -0.0000000000000000000 ) ) ;
#16 = CIRCLE ( 'NONE', #180, 1.680000000000001048 ) ;
#17 = PRODUCT_RELATED_PRODUCT_CATEGORY ( 'part', '', ( #39 ) ) ;
#18 =( LENGTH_UNIT ( ) NAMED_UNIT ( * ) SI_UNIT ( .MILLI., .METRE. ) );
#19 = CIRCLE ( 'NONE', #165, 2.100000000000009415 ) ;
#20 = SURFACE_STYLE_USAGE ( .BOTH. , #72 ) ;
#21 = FACE_OUTER_BOUND ( 'NONE', #164, .T. ) ;
#22 = DIRECTION ( 'NONE',  ( 0.0000000000000000000, 0.0000000000000000000, 1.000000000000000000 ) ) ;
#23 = SURFACE_SIDE_STYLE ('',( #91 ) ) ;
#24 = EDGE_LOOP ( 'NONE', ( #191 ) ) ;
#25 = ADVANCED_FACE ( 'NONE', ( #45 ), #114, .F. ) ;
#26 = PRODUCT_DEFINITION_FORMATION_WITH_SPECIFIED_SOURCE ( 'ANY', '', #39, .NOT_KNOWN. ) ;
#27 = AXIS2_PLACEMENT_3D ( 'NONE', #131, #201, #88 ) ;
#28 =( LENGTH_UNIT ( ) NAMED_UNIT ( * ) SI_UNIT ( .MILLI., .METRE. ) );
#29 = DIRECTION ( 'NONE',  ( 1.000000000000000000, 0.0000000000000000000, 0.0000000000000000000 ) ) ;
#30 = EDGE_CURVE ( 'NONE', #147, #147, #60, .T. ) ;
#31 =( LENGTH_UNIT ( ) NAMED_UNIT ( * ) SI_UNIT ( .MILLI., .METRE. ) );
#32 = PRESENTATION_STYLE_ASSIGNMENT (( #63 ) ) ;
#33 =( LENGTH_UNIT ( ) NAMED_UNIT ( * ) SI_UNIT ( .MILLI., .METRE. ) );
#34 = CARTESIAN_POINT ( 'NONE',  ( 74.13015151901649347, 0.0000000000000000000, 2.100000000000009415 ) ) ;
#35 = DIRECTION ( 'NONE',  ( 1.000000000000000000, 0.0000000000000000000, 0.0000000000000000000 ) ) ;
#36 = SURFACE_STYLE_USAGE ( .BOTH. , #13 ) ;
#37 = DIRECTION ( 'NONE',  ( 0.0000000000000000000, 0.0000000000000000000, -1.000000000000000000 ) ) ;
#38 =( NAMED_UNIT ( * ) SI_UNIT ( $, .STERADIAN. ) SOLID_ANGLE_UNIT ( ) );
#39 = PRODUCT ( '03-1648', '03-1648', '', ( #150 ) ) ;
#40 = COLOUR_RGB ( '',0.7921568627450980005, 0.8196078431372548767, 0.9333333333333333481 ) ;
#41 = PRODUCT_DEFINITION ( 'UNKNOWN', '', #26, #68 ) ;
#42 = FACE_OUTER_BOUND ( 'NONE', #213, .T. ) ;
#43 =( LENGTH_UNIT ( ) NAMED_UNIT ( * ) SI_UNIT ( .MILLI., .METRE. ) );
#44 = PRESENTATION_STYLE_ASSIGNMENT (( #85 ) ) ;
#45 = FACE_OUTER_BOUND ( 'NONE', #137, .T. ) ;
#46 = ORIENTED_EDGE ( 'NONE', *, *, #202, .T. ) ;
#47 = FILL_AREA_STYLE_COLOUR ( '', #40 ) ;
#48 = PLANE ( 'NONE',  #209 ) ;
#49 = DIRECTION ( 'NONE',  ( 0.0000000000000000000, 0.0000000000000000000, 1.000000000000000000 ) ) ;
#50 = ADVANCED_BREP_SHAPE_REPRESENTATION ( '03-1648', ( #70, #177, #51 ), #80 ) ;
#51 = AXIS2_PLACEMENT_3D ( 'NONE', #101, #74, #181 ) ;
#52 = SURFACE_SIDE_STYLE ('',( #64 ) ) ;
#53 = CARTESIAN_POINT ( 'NONE',  ( 32.00000000000000000, 0.0000000000000000000, -2.100000000000004530 ) ) ;
#54 = MECHANICAL_DESIGN_GEOMETRIC_PRESENTATION_REPRESENTATION (  '', ( #133 ), #141 ) ;
#55 = SURFACE_STYLE_FILL_AREA ( #134 ) ;
#56 =( NAMED_UNIT ( * ) SI_UNIT ( $, .STERADIAN. ) SOLID_ANGLE_UNIT ( ) );
#57 = APPLICATION_PROTOCOL_DEFINITION ( 'draft international standard', 'automotive_design', 1998, #175 ) ;
#58 = SHAPE_DEFINITION_REPRESENTATION ( #162, #50 ) ;
#59 = SURFACE_STYLE_FILL_AREA ( #96 ) ;
#60 = CIRCLE ( 'NONE', #61, 2.100000000000004530 ) ;
#61 = AXIS2_PLACEMENT_3D ( 'NONE', #66, #35, #166 ) ;
#62 = DIRECTION ( 'NONE',  ( 0.0000000000000000000, 0.0000000000000000000, -1.000000000000000000 ) ) ;
#63 = SURFACE_STYLE_USAGE ( .BOTH. , #90 ) ;
#64 = SURFACE_STYLE_FILL_AREA ( #81 ) ;
#65 = DIRECTION ( 'NONE',  ( -1.000000000000000000, -0.0000000000000000000, -0.0000000000000000000 ) ) ;
#66 = CARTESIAN_POINT ( 'NONE',  ( 32.00000000000000000, 0.0000000000000000000, 0.0000000000000000000 ) ) ;
#67 = CARTESIAN_POINT ( 'NONE',  ( 74.13015151901649347, 0.0000000000000000000, 0.0000000000000000000 ) ) ;
#68 = PRODUCT_DEFINITION_CONTEXT ( 'detailed design', #99, 'design' ) ;
#69 = CARTESIAN_POINT ( 'NONE',  ( 0.0000000000000000000, 0.0000000000000000000, 0.0000000000000000000 ) ) ;
#70 = MANIFOLD_SOLID_BREP ( 'ºÐÇÒ2[1]', #185 ) ;
#71 = CARTESIAN_POINT ( 'NONE',  ( 0.0000000000000000000, 0.0000000000000000000, 0.0000000000000000000 ) ) ;
#72 = SURFACE_SIDE_STYLE ('',( #59 ) ) ;
#73 =( GEOMETRIC_REPRESENTATION_CONTEXT ( 3 ) GLOBAL_UNCERTAINTY_ASSIGNED_CONTEXT ( ( #6 ) ) GLOBAL_UNIT_ASSIGNED_CONTEXT ( ( #43, #205, #100 ) ) REPRESENTATION_CONTEXT ( 'NONE', 'WORKASPACE' ) );
#74 = DIRECTION ( 'NONE',  ( 0.0000000000000000000, 0.0000000000000000000, 1.000000000000000000 ) ) ;
#75 = FACE_BOUND ( 'NONE', #195, .T. ) ;
#76 = UNCERTAINTY_MEASURE_WITH_UNIT (LENGTH_MEASURE( 1.000000000000000082E-05 ), #33, 'distance_accuracy_value', 'NONE');
#77 = CYLINDRICAL_SURFACE ( 'NONE', #127, 2.100000000000004530 ) ;
#78 = ADVANCED_FACE ( 'NONE', ( #21, #3 ), #128, .T. ) ;
#79 = DIRECTION ( 'NONE',  ( 1.000000000000000000, 0.0000000000000000000, 0.0000000000000000000 ) ) ;
#80 =( GEOMETRIC_REPRESENTATION_CONTEXT ( 3 ) GLOBAL_UNCERTAINTY_ASSIGNED_CONTEXT ( ( #124 ) ) GLOBAL_UNIT_ASSIGNED_CONTEXT ( ( #126, #203, #135 ) ) REPRESENTATION_CONTEXT ( 'NONE', 'WORKASPACE' ) );
#81 = FILL_AREA_STYLE ('',( #110 ) ) ;
#82 = DIRECTION ( 'NONE',  ( -1.000000000000000000, -0.0000000000000000000, -0.0000000000000000000 ) ) ;
#83 = FILL_AREA_STYLE_COLOUR ( '', #12 ) ;
#84 = SURFACE_STYLE_FILL_AREA ( #118 ) ;
#85 = SURFACE_STYLE_USAGE ( .BOTH. , #23 ) ;
#86 = EDGE_LOOP ( 'NONE', ( #139 ) ) ;
#87 = MECHANICAL_DESIGN_GEOMETRIC_PRESENTATION_REPRESENTATION (  '', ( #117 ), #73 ) ;
#88 = DIRECTION ( 'NONE',  ( 0.0000000000000000000, 0.0000000000000000000, -1.000000000000000000 ) ) ;
#89 = DIRECTION ( 'NONE',  ( 0.0000000000000000000, 0.0000000000000000000, 1.000000000000000000 ) ) ;
#90 = SURFACE_SIDE_STYLE ('',( #84 ) ) ;
#91 = SURFACE_STYLE_FILL_AREA ( #159 ) ;
#92 = COLOUR_RGB ( '',1.000000000000000000, 1.000000000000000000, 0.0000000000000000000 ) ;
#93 = CARTESIAN_POINT ( 'NONE',  ( 32.00000000000000000, 0.0000000000000000000, 0.0000000000000000000 ) ) ;
#94 = AXIS2_PLACEMENT_3D ( 'NONE', #14, #29, #210 ) ;
#95 =( NAMED_UNIT ( * ) SI_UNIT ( $, .STERADIAN. ) SOLID_ANGLE_UNIT ( ) );
#96 = FILL_AREA_STYLE ('',( #83 ) ) ;
#97 = EDGE_LOOP ( 'NONE', ( #187 ) ) ;
#98 =( GEOMETRIC_REPRESENTATION_CONTEXT ( 3 ) GLOBAL_UNCERTAINTY_ASSIGNED_CONTEXT ( ( #171 ) ) GLOBAL_UNIT_ASSIGNED_CONTEXT ( ( #18, #112, #183 ) ) REPRESENTATION_CONTEXT ( 'NONE', 'WORKASPACE' ) );
#99 = APPLICATION_CONTEXT ( 'automotive_design' ) ;
#100 =( NAMED_UNIT ( * ) SI_UNIT ( $, .STERADIAN. ) SOLID_ANGLE_UNIT ( ) );
#101 = CARTESIAN_POINT ( 'NONE',  ( 0.0000000000000000000, 0.0000000000000000000, 0.0000000000000000000 ) ) ;
#102 = STYLED_ITEM ( 'NONE', ( #32 ), #177 ) ;
#103 =( GEOMETRIC_REPRESENTATION_CONTEXT ( 3 ) GLOBAL_UNCERTAINTY_ASSIGNED_CONTEXT ( ( #76 ) ) GLOBAL_UNIT_ASSIGNED_CONTEXT ( ( #33, #132, #56 ) ) REPRESENTATION_CONTEXT ( 'NONE', 'WORKASPACE' ) );
#104 = PLANE ( 'NONE',  #123 ) ;
#105 = DIRECTION ( 'NONE',  ( -1.000000000000000000, -0.0000000000000000000, -0.0000000000000000000 ) ) ;
#106 = STYLED_ITEM ( 'NONE', ( #108 ), #146 ) ;
#107 = CARTESIAN_POINT ( 'NONE',  ( -1.285879139104721225E-16, 0.0000000000000000000, 0.0000000000000000000 ) ) ;
#108 = PRESENTATION_STYLE_ASSIGNMENT (( #36 ) ) ;
#109 = SURFACE_STYLE_USAGE ( .BOTH. , #52 ) ;
#110 = FILL_AREA_STYLE_COLOUR ( '', #148 ) ;
#111 = MECHANICAL_DESIGN_GEOMETRIC_PRESENTATION_REPRESENTATION (  '', ( #102 ), #98 ) ;
#112 =( NAMED_UNIT ( * ) PLANE_ANGLE_UNIT ( ) SI_UNIT ( $, .RADIAN. ) );
#113 = CARTESIAN_POINT ( 'NONE',  ( 0.4200000000000027045, 0.0000000000000000000, -2.100000000000004530 ) ) ;
#114 = PLANE ( 'NONE',  #27 ) ;
#115 = COLOUR_RGB ( '',0.7921568627450980005, 0.8196078431372548767, 0.9333333333333333481 ) ;
#116 = DIRECTION ( 'NONE',  ( 1.000000000000000000, 0.0000000000000000000, 0.0000000000000000000 ) ) ;
#117 = STYLED_ITEM ( 'NONE', ( #44 ), #50 ) ;
#118 = FILL_AREA_STYLE ('',( #47 ) ) ;
#119 = EDGE_LOOP ( 'NONE', ( #158 ) ) ;
#120 = DIRECTION ( 'NONE',  ( 0.0000000000000000000, 0.0000000000000000000, -1.000000000000000000 ) ) ;
#121 = DIRECTION ( 'NONE',  ( 0.0000000000000000000, 0.0000000000000000000, -1.000000000000000000 ) ) ;
#122 = CIRCLE ( 'NONE', #197, 2.100000000000004530 ) ;
#123 = AXIS2_PLACEMENT_3D ( 'NONE', #93, #116, #62 ) ;
#124 = UNCERTAINTY_MEASURE_WITH_UNIT (LENGTH_MEASURE( 1.000000000000000082E-05 ), #126, 'distance_accuracy_value', 'NONE');
#125 = PRESENTATION_LAYER_ASSIGNMENT (  '', '', ( #102 ) ) ;
#126 =( LENGTH_UNIT ( ) NAMED_UNIT ( * ) SI_UNIT ( .MILLI., .METRE. ) );
#127 = AXIS2_PLACEMENT_3D ( 'NONE', #71, #65, #49 ) ;
#128 = CYLINDRICAL_SURFACE ( 'NONE', #194, 2.100000000000004530 ) ;
#129 = FILL_AREA_STYLE_COLOUR ( '', #92 ) ;
#130 = FILL_AREA_STYLE_COLOUR ( '', #115 ) ;
#131 = CARTESIAN_POINT ( 'NONE',  ( -1.285879139104721225E-16, 2.100000000000000089, 0.0000000000000000000 ) ) ;
#132 =( NAMED_UNIT ( * ) PLANE_ANGLE_UNIT ( ) SI_UNIT ( $, .RADIAN. ) );
#133 = STYLED_ITEM ( 'NONE', ( #151 ), #78 ) ;
#134 = FILL_AREA_STYLE ('',( #129 ) ) ;
#135 =( NAMED_UNIT ( * ) SI_UNIT ( $, .STERADIAN. ) SOLID_ANGLE_UNIT ( ) );
#136 = CONICAL_SURFACE ( 'NONE', #178, 2414.213562373078275, 1.178097245096169976 ) ;
#137 = EDGE_LOOP ( 'NONE', ( #160 ) ) ;
#138 = PRESENTATION_LAYER_ASSIGNMENT (  '', '', ( #117 ) ) ;
#139 = ORIENTED_EDGE ( 'NONE', *, *, #211, .F. ) ;
#140 = ADVANCED_FACE ( 'NONE', ( #206, #75 ), #7, .T. ) ;
#141 =( GEOMETRIC_REPRESENTATION_CONTEXT ( 3 ) GLOBAL_UNCERTAINTY_ASSIGNED_CONTEXT ( ( #156 ) ) GLOBAL_UNIT_ASSIGNED_CONTEXT ( ( #28, #2, #38 ) ) REPRESENTATION_CONTEXT ( 'NONE', 'WORKASPACE' ) );
#142 = CARTESIAN_POINT ( 'NONE',  ( -925.0000000000000000, 0.0000000000000000000, 0.0000000000000000000 ) ) ;
#143 =( NAMED_UNIT ( * ) PLANE_ANGLE_UNIT ( ) SI_UNIT ( $, .RADIAN. ) );
#144 = VERTEX_POINT ( 'NONE', #34 ) ;
#145 = PRESENTATION_LAYER_ASSIGNMENT (  '', '', ( #133 ) ) ;
#146 = ADVANCED_FACE ( 'NONE', ( #199 ), #136, .T. ) ;
#147 = VERTEX_POINT ( 'NONE', #1 ) ;
#148 = COLOUR_RGB ( '',0.7921568627450980005, 0.8196078431372548767, 0.9333333333333333481 ) ;
#149 = CIRCLE ( 'NONE', #94, 2.100000000000004530 ) ;
#150 = PRODUCT_CONTEXT ( 'NONE', #175, 'mechanical' ) ;
#151 = PRESENTATION_STYLE_ASSIGNMENT (( #20 ) ) ;
#152 = DIRECTION ( 'NONE',  ( 1.000000000000000000, 0.0000000000000000000, 0.0000000000000000000 ) ) ;
#153 =( GEOMETRIC_REPRESENTATION_CONTEXT ( 3 ) GLOBAL_UNCERTAINTY_ASSIGNED_CONTEXT ( ( #155 ) ) GLOBAL_UNIT_ASSIGNED_CONTEXT ( ( #31, #143, #95 ) ) REPRESENTATION_CONTEXT ( 'NONE', 'WORKASPACE' ) );
#154 = ORIENTED_EDGE ( 'NONE', *, *, #192, .T. ) ;
#155 = UNCERTAINTY_MEASURE_WITH_UNIT (LENGTH_MEASURE( 1.000000000000000082E-05 ), #31, 'distance_accuracy_value', 'NONE');
#156 = UNCERTAINTY_MEASURE_WITH_UNIT (LENGTH_MEASURE( 1.000000000000000082E-05 ), #28, 'distance_accuracy_value', 'NONE');
#157 = STYLED_ITEM ( 'NONE', ( #179 ), #70 ) ;
#158 = ORIENTED_EDGE ( 'NONE', *, *, #30, .F. ) ;
#159 = FILL_AREA_STYLE ('',( #130 ) ) ;
#160 = ORIENTED_EDGE ( 'NONE', *, *, #8, .T. ) ;
#161 = ADVANCED_FACE ( 'NONE', ( #173, #167 ), #77, .T. ) ;
#162 = PRODUCT_DEFINITION_SHAPE ( 'NONE', 'NONE',  #41 ) ;
#163 = DIRECTION ( 'NONE',  ( -1.000000000000000000, -0.0000000000000000000, -0.0000000000000000000 ) ) ;
#164 = EDGE_LOOP ( 'NONE', ( #154 ) ) ;
#165 = AXIS2_PLACEMENT_3D ( 'NONE', #67, #163, #89 ) ;
#166 = DIRECTION ( 'NONE',  ( 0.0000000000000000000, 0.0000000000000000000, -1.000000000000000000 ) ) ;
#167 = FACE_OUTER_BOUND ( 'NONE', #119, .T. ) ;
#168 = EDGE_LOOP ( 'NONE', ( #174 ) ) ;
#169 = PRESENTATION_LAYER_ASSIGNMENT (  '', '', ( #106 ) ) ;
#170 = CLOSED_SHELL ( 'NONE', ( #10, #78, #146 ) ) ;
#171 = UNCERTAINTY_MEASURE_WITH_UNIT (LENGTH_MEASURE( 1.000000000000000082E-05 ), #18, 'distance_accuracy_value', 'NONE');
#172 = DIRECTION ( 'NONE',  ( 1.000000000000000000, 0.0000000000000000000, 0.0000000000000000000 ) ) ;
#173 = FACE_OUTER_BOUND ( 'NONE', #5, .T. ) ;
#174 = ORIENTED_EDGE ( 'NONE', *, *, #30, .T. ) ;
#175 = APPLICATION_CONTEXT ( 'automotive_design' ) ;
#176 = AXIS2_PLACEMENT_3D ( 'NONE', #107, #172, #120 ) ;
#177 = MANIFOLD_SOLID_BREP ( 'ºÐÇÒ2[2]', #170 ) ;
#178 = AXIS2_PLACEMENT_3D ( 'NONE', #142, #82, #200 ) ;
#179 = PRESENTATION_STYLE_ASSIGNMENT (( #109 ) ) ;
#180 = AXIS2_PLACEMENT_3D ( 'NONE', #4, #105, #198 ) ;
#181 = DIRECTION ( 'NONE',  ( 1.000000000000000000, 0.0000000000000000000, 0.0000000000000000000 ) ) ;
#182 = CARTESIAN_POINT ( 'NONE',  ( -1.285879139104721225E-16, 0.0000000000000000000, -1.680000000000001048 ) ) ;
#183 =( NAMED_UNIT ( * ) SI_UNIT ( $, .STERADIAN. ) SOLID_ANGLE_UNIT ( ) );
#184 = VERTEX_POINT ( 'NONE', #113 ) ;
#185 = CLOSED_SHELL ( 'NONE', ( #161, #25, #140, #193 ) ) ;
#186 = MECHANICAL_DESIGN_GEOMETRIC_PRESENTATION_REPRESENTATION (  '', ( #106 ), #103 ) ;
#187 = ORIENTED_EDGE ( 'NONE', *, *, #202, .F. ) ;
#188 = CARTESIAN_POINT ( 'NONE',  ( 32.00000000000000000, 0.0000000000000000000, 0.0000000000000000000 ) ) ;
#189 = APPLICATION_PROTOCOL_DEFINITION ( 'draft international standard', 'automotive_design', 1998, #99 ) ;
#190 = VERTEX_POINT ( 'NONE', #182 ) ;
#191 = ORIENTED_EDGE ( 'NONE', *, *, #211, .T. ) ;
#192 = EDGE_CURVE ( 'NONE', #11, #11, #149, .T. ) ;
#193 = ADVANCED_FACE ( 'NONE', ( #207 ), #48, .T. ) ;
#194 = AXIS2_PLACEMENT_3D ( 'NONE', #69, #15, #22 ) ;
#195 = EDGE_LOOP ( 'NONE', ( #208 ) ) ;
#196 = CARTESIAN_POINT ( 'NONE',  ( 0.4200000000000027045, 0.0000000000000000000, 0.0000000000000000000 ) ) ;
#197 = AXIS2_PLACEMENT_3D ( 'NONE', #196, #152, #121 ) ;
#198 = DIRECTION ( 'NONE',  ( 0.0000000000000000000, 0.0000000000000000000, -1.000000000000000000 ) ) ;
#199 = FACE_OUTER_BOUND ( 'NONE', #86, .T. ) ;
#200 = DIRECTION ( 'NONE',  ( 0.0000000000000000000, 0.0000000000000000000, 1.000000000000000000 ) ) ;
#201 = DIRECTION ( 'NONE',  ( 1.000000000000000000, 0.0000000000000000000, 0.0000000000000000000 ) ) ;
#202 = EDGE_CURVE ( 'NONE', #184, #184, #122, .T. ) ;
#203 =( NAMED_UNIT ( * ) PLANE_ANGLE_UNIT ( ) SI_UNIT ( $, .RADIAN. ) );
#204 = ORIENTED_EDGE ( 'NONE', *, *, #192, .F. ) ;
#205 =( NAMED_UNIT ( * ) PLANE_ANGLE_UNIT ( ) SI_UNIT ( $, .RADIAN. ) );
#206 = FACE_OUTER_BOUND ( 'NONE', #97, .T. ) ;
#207 = FACE_OUTER_BOUND ( 'NONE', #168, .T. ) ;
#208 = ORIENTED_EDGE ( 'NONE', *, *, #8, .F. ) ;
#209 = AXIS2_PLACEMENT_3D ( 'NONE', #188, #79, #37 ) ;
#210 = DIRECTION ( 'NONE',  ( 0.0000000000000000000, 0.0000000000000000000, -1.000000000000000000 ) ) ;
#211 = EDGE_CURVE ( 'NONE', #144, #144, #19, .T. ) ;
#212 = PRESENTATION_LAYER_ASSIGNMENT (  '', '', ( #157 ) ) ;
#213 = EDGE_LOOP ( 'NONE', ( #204 ) ) ;
ENDSEC;
END-ISO-10303-21;
