ISO-10303-21;
HEADER;
FILE_DESCRIPTION (( 'STEP AP214' ),
    '1' );
FILE_NAME ('03-1649.STEP',
    '2021-10-01T05:27:36',
    ( 'USER' ),
    ( '' ),
    'SwSTEP 2.0',
    'SolidWorks 2018',
    '' );
FILE_SCHEMA (( 'AUTOMOTIVE_DESIGN' ));
ENDSEC;

DATA;
#1 = CARTESIAN_POINT ( 'NONE',  ( 79.10944084089783246, 0.0000000000000000000, 0.0000000000000000000 ) ) ;
#2 =( LENGTH_UNIT ( ) NAMED_UNIT ( * ) SI_UNIT ( .MILLI., .METRE. ) );
#3 = APPLICATION_PROTOCOL_DEFINITION ( 'draft international standard', 'automotive_design', 1998, #46 ) ;
#4 = CONICAL_SURFACE ( 'NONE', #202, 1.720000000000006191, 0.7853981633974418397 ) ;
#5 = DIRECTION ( 'NONE',  ( 1.000000000000000000, 0.0000000000000000000, 0.0000000000000000000 ) ) ;
#6 = EDGE_CURVE ( 'NONE', #179, #179, #19, .T. ) ;
#7 = EDGE_LOOP ( 'NONE', ( #96 ) ) ;
#8 = SURFACE_STYLE_FILL_AREA ( #34 ) ;
#9 =( NAMED_UNIT ( * ) SI_UNIT ( $, .STERADIAN. ) SOLID_ANGLE_UNIT ( ) );
#10 = FILL_AREA_STYLE_COLOUR ( '', #40 ) ;
#11 = DIRECTION ( 'NONE',  ( 0.0000000000000000000, 0.0000000000000000000, -1.000000000000000000 ) ) ;
#12 = ADVANCED_FACE ( 'NONE', ( #22, #136 ), #78, .T. ) ;
#13 = APPLICATION_PROTOCOL_DEFINITION ( 'draft international standard', 'automotive_design', 1998, #130 ) ;
#14 = PRESENTATION_STYLE_ASSIGNMENT (( #190 ) ) ;
#15 = CARTESIAN_POINT ( 'NONE',  ( 0.4300000000000044897, 0.0000000000000000000, -2.150000000000005240 ) ) ;
#16 = DIRECTION ( 'NONE',  ( 0.0000000000000000000, 0.0000000000000000000, 1.000000000000000000 ) ) ;
#17 = EDGE_CURVE ( 'NONE', #187, #187, #189, .T. ) ;
#18 = FILL_AREA_STYLE ('',( #30 ) ) ;
#19 = CIRCLE ( 'NONE', #72, 2.150000000000005240 ) ;
#20 = PRESENTATION_STYLE_ASSIGNMENT (( #57 ) ) ;
#21 = ADVANCED_FACE ( 'NONE', ( #151, #170 ), #103, .T. ) ;
#22 = FACE_OUTER_BOUND ( 'NONE', #92, .T. ) ;
#23 = EDGE_CURVE ( 'NONE', #128, #128, #182, .T. ) ;
#24 =( GEOMETRIC_REPRESENTATION_CONTEXT ( 3 ) GLOBAL_UNCERTAINTY_ASSIGNED_CONTEXT ( ( #155 ) ) GLOBAL_UNIT_ASSIGNED_CONTEXT ( ( #137, #65, #145 ) ) REPRESENTATION_CONTEXT ( 'NONE', 'WORKASPACE' ) );
#25 = ORIENTED_EDGE ( 'NONE', *, *, #42, .F. ) ;
#26 = EDGE_CURVE ( 'NONE', #208, #208, #110, .T. ) ;
#27 = FILL_AREA_STYLE ('',( #143 ) ) ;
#28 = ADVANCED_FACE ( 'NONE', ( #178 ), #98, .T. ) ;
#29 =( NAMED_UNIT ( * ) SI_UNIT ( $, .STERADIAN. ) SOLID_ANGLE_UNIT ( ) );
#30 = FILL_AREA_STYLE_COLOUR ( '', #109 ) ;
#31 = EDGE_LOOP ( 'NONE', ( #45 ) ) ;
#32 = FILL_AREA_STYLE_COLOUR ( '', #75 ) ;
#33 =( NAMED_UNIT ( * ) PLANE_ANGLE_UNIT ( ) SI_UNIT ( $, .RADIAN. ) );
#34 = FILL_AREA_STYLE ('',( #32 ) ) ;
#35 =( NAMED_UNIT ( * ) SI_UNIT ( $, .STERADIAN. ) SOLID_ANGLE_UNIT ( ) );
#36 = UNCERTAINTY_MEASURE_WITH_UNIT (LENGTH_MEASURE( 1.000000000000000082E-05 ), #97, 'distance_accuracy_value', 'NONE');
#37 = STYLED_ITEM ( 'NONE', ( #14 ), #60 ) ;
#38 = PRODUCT_DEFINITION_CONTEXT ( 'detailed design', #130, 'design' ) ;
#39 = ORIENTED_EDGE ( 'NONE', *, *, #6, .T. ) ;
#40 = COLOUR_RGB ( '',0.7921568627450980005, 0.8196078431372548767, 0.9333333333333333481 ) ;
#41 = SHAPE_DEFINITION_REPRESENTATION ( #138, #114 ) ;
#42 = EDGE_CURVE ( 'NONE', #167, #167, #184, .T. ) ;
#43 = PRESENTATION_LAYER_ASSIGNMENT (  '', '', ( #118 ) ) ;
#44 = ADVANCED_FACE ( 'NONE', ( #141, #154 ), #4, .T. ) ;
#45 = ORIENTED_EDGE ( 'NONE', *, *, #17, .F. ) ;
#46 = APPLICATION_CONTEXT ( 'automotive_design' ) ;
#47 = ADVANCED_FACE ( 'NONE', ( #149 ), #86, .F. ) ;
#48 = CARTESIAN_POINT ( 'NONE',  ( -1.316495309083404864E-16, 2.149999999999999911, 0.0000000000000000000 ) ) ;
#49 = SURFACE_SIDE_STYLE ('',( #8 ) ) ;
#50 = PRODUCT_DEFINITION_FORMATION_WITH_SPECIFIED_SOURCE ( 'ANY', '', #199, .NOT_KNOWN. ) ;
#51 = CARTESIAN_POINT ( 'NONE',  ( 33.00000000000000000, 0.0000000000000000000, -2.150000000000005240 ) ) ;
#52 = CARTESIAN_POINT ( 'NONE',  ( -920.0000000000000000, 0.0000000000000000000, 0.0000000000000000000 ) ) ;
#53 =( NAMED_UNIT ( * ) SI_UNIT ( $, .STERADIAN. ) SOLID_ANGLE_UNIT ( ) );
#54 = DIRECTION ( 'NONE',  ( 1.000000000000000000, 0.0000000000000000000, 0.0000000000000000000 ) ) ;
#55 = MECHANICAL_DESIGN_GEOMETRIC_PRESENTATION_REPRESENTATION (  '', ( #118 ), #24 ) ;
#56 = PRESENTATION_STYLE_ASSIGNMENT (( #209 ) ) ;
#57 = SURFACE_STYLE_USAGE ( .BOTH. , #49 ) ;
#58 = DIRECTION ( 'NONE',  ( 1.000000000000000000, 0.0000000000000000000, 0.0000000000000000000 ) ) ;
#59 = ORIENTED_EDGE ( 'NONE', *, *, #6, .F. ) ;
#60 = ADVANCED_FACE ( 'NONE', ( #197 ), #132, .T. ) ;
#61 = UNCERTAINTY_MEASURE_WITH_UNIT (LENGTH_MEASURE( 1.000000000000000082E-05 ), #191, 'distance_accuracy_value', 'NONE');
#62 = CARTESIAN_POINT ( 'NONE',  ( 33.00000000000000000, 0.0000000000000000000, 0.0000000000000000000 ) ) ;
#63 = AXIS2_PLACEMENT_3D ( 'NONE', #168, #58, #181 ) ;
#64 =( NAMED_UNIT ( * ) PLANE_ANGLE_UNIT ( ) SI_UNIT ( $, .RADIAN. ) );
#65 =( NAMED_UNIT ( * ) PLANE_ANGLE_UNIT ( ) SI_UNIT ( $, .RADIAN. ) );
#66 = DIRECTION ( 'NONE',  ( 0.0000000000000000000, 0.0000000000000000000, 1.000000000000000000 ) ) ;
#67 = EDGE_LOOP ( 'NONE', ( #146 ) ) ;
#68 = SURFACE_STYLE_FILL_AREA ( #206 ) ;
#69 =( LENGTH_UNIT ( ) NAMED_UNIT ( * ) SI_UNIT ( .MILLI., .METRE. ) );
#70 = SURFACE_STYLE_USAGE ( .BOTH. , #161 ) ;
#71 =( NAMED_UNIT ( * ) PLANE_ANGLE_UNIT ( ) SI_UNIT ( $, .RADIAN. ) );
#72 = AXIS2_PLACEMENT_3D ( 'NONE', #194, #104, #160 ) ;
#73 = CARTESIAN_POINT ( 'NONE',  ( 33.00000000000000000, 0.0000000000000000000, -2.150000000000005240 ) ) ;
#74 = DIRECTION ( 'NONE',  ( -1.000000000000000000, -0.0000000000000000000, -0.0000000000000000000 ) ) ;
#75 = COLOUR_RGB ( '',0.7921568627450980005, 0.8196078431372548767, 0.9333333333333333481 ) ;
#76 = DIRECTION ( 'NONE',  ( 0.0000000000000000000, 0.0000000000000000000, -1.000000000000000000 ) ) ;
#77 = DIRECTION ( 'NONE',  ( 1.000000000000000000, 0.0000000000000000000, 0.0000000000000000000 ) ) ;
#78 = CYLINDRICAL_SURFACE ( 'NONE', #111, 2.150000000000005240 ) ;
#79 = PRESENTATION_LAYER_ASSIGNMENT (  '', '', ( #126 ) ) ;
#80 = PRODUCT_DEFINITION ( 'UNKNOWN', '', #50, #38 ) ;
#81 = MECHANICAL_DESIGN_GEOMETRIC_PRESENTATION_REPRESENTATION (  '', ( #37 ), #142 ) ;
#82 = ORIENTED_EDGE ( 'NONE', *, *, #42, .T. ) ;
#83 = PLANE ( 'NONE',  #127 ) ;
#84 = UNCERTAINTY_MEASURE_WITH_UNIT (LENGTH_MEASURE( 1.000000000000000082E-05 ), #69, 'distance_accuracy_value', 'NONE');
#85 = FILL_AREA_STYLE ('',( #89 ) ) ;
#86 = PLANE ( 'NONE',  #173 ) ;
#87 = EDGE_LOOP ( 'NONE', ( #25 ) ) ;
#88 =( GEOMETRIC_REPRESENTATION_CONTEXT ( 3 ) GLOBAL_UNCERTAINTY_ASSIGNED_CONTEXT ( ( #61 ) ) GLOBAL_UNIT_ASSIGNED_CONTEXT ( ( #191, #107, #35 ) ) REPRESENTATION_CONTEXT ( 'NONE', 'WORKASPACE' ) );
#89 = FILL_AREA_STYLE_COLOUR ( '', #124 ) ;
#90 = AXIS2_PLACEMENT_3D ( 'NONE', #176, #193, #5 ) ;
#91 = DIRECTION ( 'NONE',  ( 0.0000000000000000000, 0.0000000000000000000, -1.000000000000000000 ) ) ;
#92 = EDGE_LOOP ( 'NONE', ( #156 ) ) ;
#93 = STYLED_ITEM ( 'NONE', ( #171 ), #21 ) ;
#94 = SURFACE_STYLE_FILL_AREA ( #18 ) ;
#95 = MANIFOLD_SOLID_BREP ( 'ºÐÇÒ2[1]', #121 ) ;
#96 = ORIENTED_EDGE ( 'NONE', *, *, #23, .F. ) ;
#97 =( LENGTH_UNIT ( ) NAMED_UNIT ( * ) SI_UNIT ( .MILLI., .METRE. ) );
#98 = PLANE ( 'NONE',  #211 ) ;
#99 = AXIS2_PLACEMENT_3D ( 'NONE', #172, #175, #166 ) ;
#100 = EDGE_LOOP ( 'NONE', ( #39 ) ) ;
#101 = CARTESIAN_POINT ( 'NONE',  ( -1.316495309083404864E-16, 0.0000000000000000000, -1.720000000000006191 ) ) ;
#102 = SURFACE_SIDE_STYLE ('',( #94 ) ) ;
#103 = CYLINDRICAL_SURFACE ( 'NONE', #196, 2.150000000000005240 ) ;
#104 = DIRECTION ( 'NONE',  ( 1.000000000000000000, 0.0000000000000000000, 0.0000000000000000000 ) ) ;
#105 = DIRECTION ( 'NONE',  ( 1.000000000000000000, 0.0000000000000000000, 0.0000000000000000000 ) ) ;
#106 = DIRECTION ( 'NONE',  ( 0.0000000000000000000, 0.0000000000000000000, -1.000000000000000000 ) ) ;
#107 =( NAMED_UNIT ( * ) PLANE_ANGLE_UNIT ( ) SI_UNIT ( $, .RADIAN. ) );
#108 = PRESENTATION_LAYER_ASSIGNMENT (  '', '', ( #37 ) ) ;
#109 = COLOUR_RGB ( '',0.7921568627450980005, 0.8196078431372548767, 0.9333333333333333481 ) ;
#110 = CIRCLE ( 'NONE', #63, 2.150000000000005240 ) ;
#111 = AXIS2_PLACEMENT_3D ( 'NONE', #122, #204, #188 ) ;
#112 = PRODUCT_RELATED_PRODUCT_CATEGORY ( 'part', '', ( #199 ) ) ;
#113 = DIRECTION ( 'NONE',  ( 1.000000000000000000, 0.0000000000000000000, 0.0000000000000000000 ) ) ;
#114 = ADVANCED_BREP_SHAPE_REPRESENTATION ( '03-1649', ( #95, #131, #90 ), #200 ) ;
#115 = COLOUR_RGB ( '',1.000000000000000000, 1.000000000000000000, 0.0000000000000000000 ) ;
#116 = AXIS2_PLACEMENT_3D ( 'NONE', #52, #213, #16 ) ;
#117 =( LENGTH_UNIT ( ) NAMED_UNIT ( * ) SI_UNIT ( .MILLI., .METRE. ) );
#118 = STYLED_ITEM ( 'NONE', ( #56 ), #131 ) ;
#119 = SURFACE_SIDE_STYLE ('',( #201 ) ) ;
#120 = CARTESIAN_POINT ( 'NONE',  ( -1.316495309083404864E-16, 0.0000000000000000000, 0.0000000000000000000 ) ) ;
#121 = CLOSED_SHELL ( 'NONE', ( #12, #198, #44, #28 ) ) ;
#122 = CARTESIAN_POINT ( 'NONE',  ( 0.0000000000000000000, 0.0000000000000000000, 0.0000000000000000000 ) ) ;
#123 = CARTESIAN_POINT ( 'NONE',  ( 0.0000000000000000000, 0.0000000000000000000, 0.0000000000000000000 ) ) ;
#124 = COLOUR_RGB ( '',1.000000000000000000, 1.000000000000000000, 0.0000000000000000000 ) ;
#125 = ORIENTED_EDGE ( 'NONE', *, *, #17, .T. ) ;
#126 = STYLED_ITEM ( 'NONE', ( #20 ), #95 ) ;
#127 = AXIS2_PLACEMENT_3D ( 'NONE', #48, #113, #11 ) ;
#128 = VERTEX_POINT ( 'NONE', #73 ) ;
#129 = EDGE_LOOP ( 'NONE', ( #59 ) ) ;
#130 = APPLICATION_CONTEXT ( 'automotive_design' ) ;
#131 = MANIFOLD_SOLID_BREP ( 'ºÐÇÒ2[2]', #169 ) ;
#132 = CONICAL_SURFACE ( 'NONE', #116, 2414.213562373050536, 1.178097245096165979 ) ;
#133 = PRODUCT_CONTEXT ( 'NONE', #46, 'mechanical' ) ;
#134 = DIRECTION ( 'NONE',  ( 0.0000000000000000000, 0.0000000000000000000, -1.000000000000000000 ) ) ;
#135 = MECHANICAL_DESIGN_GEOMETRIC_PRESENTATION_REPRESENTATION (  '', ( #126 ), #164 ) ;
#136 = FACE_OUTER_BOUND ( 'NONE', #129, .T. ) ;
#137 =( LENGTH_UNIT ( ) NAMED_UNIT ( * ) SI_UNIT ( .MILLI., .METRE. ) );
#138 = PRODUCT_DEFINITION_SHAPE ( 'NONE', 'NONE',  #80 ) ;
#139 = MECHANICAL_DESIGN_GEOMETRIC_PRESENTATION_REPRESENTATION (  '', ( #93 ), #88 ) ;
#140 = ORIENTED_EDGE ( 'NONE', *, *, #23, .T. ) ;
#141 = FACE_OUTER_BOUND ( 'NONE', #67, .T. ) ;
#142 =( GEOMETRIC_REPRESENTATION_CONTEXT ( 3 ) GLOBAL_UNCERTAINTY_ASSIGNED_CONTEXT ( ( #177 ) ) GLOBAL_UNIT_ASSIGNED_CONTEXT ( ( #2, #71, #9 ) ) REPRESENTATION_CONTEXT ( 'NONE', 'WORKASPACE' ) );
#143 = FILL_AREA_STYLE_COLOUR ( '', #115 ) ;
#144 = STYLED_ITEM ( 'NONE', ( #195 ), #114 ) ;
#145 =( NAMED_UNIT ( * ) SI_UNIT ( $, .STERADIAN. ) SOLID_ANGLE_UNIT ( ) );
#146 = ORIENTED_EDGE ( 'NONE', *, *, #26, .F. ) ;
#147 =( NAMED_UNIT ( * ) PLANE_ANGLE_UNIT ( ) SI_UNIT ( $, .RADIAN. ) );
#148 = CARTESIAN_POINT ( 'NONE',  ( 33.00000000000000000, 0.0000000000000000000, 0.0000000000000000000 ) ) ;
#149 = FACE_OUTER_BOUND ( 'NONE', #7, .T. ) ;
#150 = UNCERTAINTY_MEASURE_WITH_UNIT (LENGTH_MEASURE( 1.000000000000000082E-05 ), #117, 'distance_accuracy_value', 'NONE');
#151 = FACE_OUTER_BOUND ( 'NONE', #205, .T. ) ;
#152 = PRESENTATION_LAYER_ASSIGNMENT (  '', '', ( #93 ) ) ;
#153 = PRESENTATION_LAYER_ASSIGNMENT (  '', '', ( #144 ) ) ;
#154 = FACE_BOUND ( 'NONE', #31, .T. ) ;
#155 = UNCERTAINTY_MEASURE_WITH_UNIT (LENGTH_MEASURE( 1.000000000000000082E-05 ), #137, 'distance_accuracy_value', 'NONE');
#156 = ORIENTED_EDGE ( 'NONE', *, *, #26, .T. ) ;
#157 = CARTESIAN_POINT ( 'NONE',  ( 33.00000000000000000, 0.0000000000000000000, 0.0000000000000000000 ) ) ;
#158 =( NAMED_UNIT ( * ) SI_UNIT ( $, .STERADIAN. ) SOLID_ANGLE_UNIT ( ) );
#159 = DIRECTION ( 'NONE',  ( 1.000000000000000000, 0.0000000000000000000, 0.0000000000000000000 ) ) ;
#160 = DIRECTION ( 'NONE',  ( 0.0000000000000000000, 0.0000000000000000000, -1.000000000000000000 ) ) ;
#161 = SURFACE_SIDE_STYLE ('',( #68 ) ) ;
#162 = EDGE_LOOP ( 'NONE', ( #125 ) ) ;
#163 = SURFACE_STYLE_USAGE ( .BOTH. , #186 ) ;
#164 =( GEOMETRIC_REPRESENTATION_CONTEXT ( 3 ) GLOBAL_UNCERTAINTY_ASSIGNED_CONTEXT ( ( #84 ) ) GLOBAL_UNIT_ASSIGNED_CONTEXT ( ( #69, #147, #29 ) ) REPRESENTATION_CONTEXT ( 'NONE', 'WORKASPACE' ) );
#165 = MECHANICAL_DESIGN_GEOMETRIC_PRESENTATION_REPRESENTATION (  '', ( #144 ), #174 ) ;
#166 = DIRECTION ( 'NONE',  ( 0.0000000000000000000, 0.0000000000000000000, -1.000000000000000000 ) ) ;
#167 = VERTEX_POINT ( 'NONE', #207 ) ;
#168 = CARTESIAN_POINT ( 'NONE',  ( 0.4300000000000044897, 0.0000000000000000000, 0.0000000000000000000 ) ) ;
#169 = CLOSED_SHELL ( 'NONE', ( #47, #21, #60 ) ) ;
#170 = FACE_OUTER_BOUND ( 'NONE', #203, .T. ) ;
#171 = PRESENTATION_STYLE_ASSIGNMENT (( #163 ) ) ;
#172 = CARTESIAN_POINT ( 'NONE',  ( -1.316495309083404864E-16, 0.0000000000000000000, 0.0000000000000000000 ) ) ;
#173 = AXIS2_PLACEMENT_3D ( 'NONE', #148, #54, #76 ) ;
#174 =( GEOMETRIC_REPRESENTATION_CONTEXT ( 3 ) GLOBAL_UNCERTAINTY_ASSIGNED_CONTEXT ( ( #36 ) ) GLOBAL_UNIT_ASSIGNED_CONTEXT ( ( #97, #33, #53 ) ) REPRESENTATION_CONTEXT ( 'NONE', 'WORKASPACE' ) );
#175 = DIRECTION ( 'NONE',  ( -1.000000000000000000, -0.0000000000000000000, -0.0000000000000000000 ) ) ;
#176 = CARTESIAN_POINT ( 'NONE',  ( 0.0000000000000000000, 0.0000000000000000000, 0.0000000000000000000 ) ) ;
#177 = UNCERTAINTY_MEASURE_WITH_UNIT (LENGTH_MEASURE( 1.000000000000000082E-05 ), #2, 'distance_accuracy_value', 'NONE');
#178 = FACE_OUTER_BOUND ( 'NONE', #100, .T. ) ;
#179 = VERTEX_POINT ( 'NONE', #51 ) ;
#180 = DIRECTION ( 'NONE',  ( 0.0000000000000000000, 0.0000000000000000000, 1.000000000000000000 ) ) ;
#181 = DIRECTION ( 'NONE',  ( 0.0000000000000000000, 0.0000000000000000000, -1.000000000000000000 ) ) ;
#182 = CIRCLE ( 'NONE', #192, 2.150000000000005240 ) ;
#183 = FACE_OUTER_BOUND ( 'NONE', #162, .T. ) ;
#184 = CIRCLE ( 'NONE', #185, 2.150000000000010125 ) ;
#185 = AXIS2_PLACEMENT_3D ( 'NONE', #1, #74, #180 ) ;
#186 = SURFACE_SIDE_STYLE ('',( #212 ) ) ;
#187 = VERTEX_POINT ( 'NONE', #101 ) ;
#188 = DIRECTION ( 'NONE',  ( 0.0000000000000000000, 0.0000000000000000000, 1.000000000000000000 ) ) ;
#189 = CIRCLE ( 'NONE', #99, 1.720000000000006191 ) ;
#190 = SURFACE_STYLE_USAGE ( .BOTH. , #119 ) ;
#191 =( LENGTH_UNIT ( ) NAMED_UNIT ( * ) SI_UNIT ( .MILLI., .METRE. ) );
#192 = AXIS2_PLACEMENT_3D ( 'NONE', #62, #159, #134 ) ;
#193 = DIRECTION ( 'NONE',  ( 0.0000000000000000000, 0.0000000000000000000, 1.000000000000000000 ) ) ;
#194 = CARTESIAN_POINT ( 'NONE',  ( 33.00000000000000000, 0.0000000000000000000, 0.0000000000000000000 ) ) ;
#195 = PRESENTATION_STYLE_ASSIGNMENT (( #70 ) ) ;
#196 = AXIS2_PLACEMENT_3D ( 'NONE', #123, #210, #66 ) ;
#197 = FACE_OUTER_BOUND ( 'NONE', #87, .T. ) ;
#198 = ADVANCED_FACE ( 'NONE', ( #183 ), #83, .F. ) ;
#199 = PRODUCT ( '03-1649', '03-1649', '', ( #133 ) ) ;
#200 =( GEOMETRIC_REPRESENTATION_CONTEXT ( 3 ) GLOBAL_UNCERTAINTY_ASSIGNED_CONTEXT ( ( #150 ) ) GLOBAL_UNIT_ASSIGNED_CONTEXT ( ( #117, #64, #158 ) ) REPRESENTATION_CONTEXT ( 'NONE', 'WORKASPACE' ) );
#201 = SURFACE_STYLE_FILL_AREA ( #85 ) ;
#202 = AXIS2_PLACEMENT_3D ( 'NONE', #120, #105, #106 ) ;
#203 = EDGE_LOOP ( 'NONE', ( #82 ) ) ;
#204 = DIRECTION ( 'NONE',  ( -1.000000000000000000, -0.0000000000000000000, -0.0000000000000000000 ) ) ;
#205 = EDGE_LOOP ( 'NONE', ( #140 ) ) ;
#206 = FILL_AREA_STYLE ('',( #10 ) ) ;
#207 = CARTESIAN_POINT ( 'NONE',  ( 79.10944084089783246, 0.0000000000000000000, 2.150000000000010125 ) ) ;
#208 = VERTEX_POINT ( 'NONE', #15 ) ;
#209 = SURFACE_STYLE_USAGE ( .BOTH. , #102 ) ;
#210 = DIRECTION ( 'NONE',  ( -1.000000000000000000, -0.0000000000000000000, -0.0000000000000000000 ) ) ;
#211 = AXIS2_PLACEMENT_3D ( 'NONE', #157, #77, #91 ) ;
#212 = SURFACE_STYLE_FILL_AREA ( #27 ) ;
#213 = DIRECTION ( 'NONE',  ( -1.000000000000000000, -0.0000000000000000000, -0.0000000000000000000 ) ) ;
ENDSEC;
END-ISO-10303-21;
