ISO-10303-21;
HEADER;
FILE_DESCRIPTION (( 'STEP AP214' ),
    '1' );
FILE_NAME ('03-1650.STEP',
    '2021-10-01T05:27:54',
    ( 'USER' ),
    ( '' ),
    'SwSTEP 2.0',
    'SolidWorks 2018',
    '' );
FILE_SCHEMA (( 'AUTOMOTIVE_DESIGN' ));
ENDSEC;

DATA;
#1 = DIRECTION ( 'NONE',  ( -1.000000000000000000, -0.0000000000000000000, -0.0000000000000000000 ) ) ;
#2 = DIRECTION ( 'NONE',  ( 0.0000000000000000000, 0.0000000000000000000, -1.000000000000000000 ) ) ;
#3 = DIRECTION ( 'NONE',  ( 1.000000000000000000, 0.0000000000000000000, 0.0000000000000000000 ) ) ;
#4 = ADVANCED_BREP_SHAPE_REPRESENTATION ( '03-1650', ( #144, #199, #163 ), #164 ) ;
#5 = COLOUR_RGB ( '',1.000000000000000000, 1.000000000000000000, 0.0000000000000000000 ) ;
#6 =( NAMED_UNIT ( * ) SI_UNIT ( $, .STERADIAN. ) SOLID_ANGLE_UNIT ( ) );
#7 = EDGE_CURVE ( 'NONE', #98, #98, #172, .T. ) ;
#8 =( GEOMETRIC_REPRESENTATION_CONTEXT ( 3 ) GLOBAL_UNCERTAINTY_ASSIGNED_CONTEXT ( ( #95 ) ) GLOBAL_UNIT_ASSIGNED_CONTEXT ( ( #206, #9, #117 ) ) REPRESENTATION_CONTEXT ( 'NONE', 'WORKASPACE' ) );
#9 =( NAMED_UNIT ( * ) PLANE_ANGLE_UNIT ( ) SI_UNIT ( $, .RADIAN. ) );
#10 = EDGE_LOOP ( 'NONE', ( #101 ) ) ;
#11 = ORIENTED_EDGE ( 'NONE', *, *, #51, .F. ) ;
#12 = CARTESIAN_POINT ( 'NONE',  ( -920.0000000000000000, 0.0000000000000000000, 0.0000000000000000000 ) ) ;
#13 = EDGE_CURVE ( 'NONE', #66, #66, #211, .T. ) ;
#14 = MECHANICAL_DESIGN_GEOMETRIC_PRESENTATION_REPRESENTATION (  '', ( #30 ), #197 ) ;
#15 = DIRECTION ( 'NONE',  ( 0.0000000000000000000, 0.0000000000000000000, 1.000000000000000000 ) ) ;
#16 = CARTESIAN_POINT ( 'NONE',  ( 33.00000000000000000, 0.0000000000000000000, 0.0000000000000000000 ) ) ;
#17 = UNCERTAINTY_MEASURE_WITH_UNIT (LENGTH_MEASURE( 1.000000000000000082E-05 ), #44, 'distance_accuracy_value', 'NONE');
#18 = FACE_OUTER_BOUND ( 'NONE', #130, .T. ) ;
#19 = FILL_AREA_STYLE ('',( #187 ) ) ;
#20 = ADVANCED_FACE ( 'NONE', ( #202, #68 ), #142, .T. ) ;
#21 = SURFACE_STYLE_FILL_AREA ( #146 ) ;
#22 = PRODUCT_DEFINITION_SHAPE ( 'NONE', 'NONE',  #152 ) ;
#23 = ADVANCED_FACE ( 'NONE', ( #97, #194 ), #38, .T. ) ;
#24 = CYLINDRICAL_SURFACE ( 'NONE', #155, 2.200000000000005063 ) ;
#25 = CARTESIAN_POINT ( 'NONE',  ( 33.00000000000000000, 0.0000000000000000000, 0.0000000000000000000 ) ) ;
#26 = FILL_AREA_STYLE ('',( #118 ) ) ;
#27 = CLOSED_SHELL ( 'NONE', ( #23, #106, #20, #42 ) ) ;
#28 = VERTEX_POINT ( 'NONE', #156 ) ;
#29 = EDGE_CURVE ( 'NONE', #28, #28, #140, .T. ) ;
#30 = STYLED_ITEM ( 'NONE', ( #46 ), #4 ) ;
#31 = UNCERTAINTY_MEASURE_WITH_UNIT (LENGTH_MEASURE( 1.000000000000000082E-05 ), #87, 'distance_accuracy_value', 'NONE');
#32 = PRESENTATION_STYLE_ASSIGNMENT (( #168 ) ) ;
#33 = CARTESIAN_POINT ( 'NONE',  ( 0.4400000000000235945, 0.0000000000000000000, 0.0000000000000000000 ) ) ;
#34 = DIRECTION ( 'NONE',  ( -1.000000000000000000, -0.0000000000000000000, -0.0000000000000000000 ) ) ;
#35 = SURFACE_SIDE_STYLE ('',( #121 ) ) ;
#36 = DIRECTION ( 'NONE',  ( 0.0000000000000000000, 0.0000000000000000000, -1.000000000000000000 ) ) ;
#37 = STYLED_ITEM ( 'NONE', ( #52 ), #144 ) ;
#38 = CYLINDRICAL_SURFACE ( 'NONE', #174, 2.200000000000005063 ) ;
#39 = ORIENTED_EDGE ( 'NONE', *, *, #41, .F. ) ;
#40 = ADVANCED_FACE ( 'NONE', ( #69 ), #213, .T. ) ;
#41 = EDGE_CURVE ( 'NONE', #127, #127, #145, .T. ) ;
#42 = ADVANCED_FACE ( 'NONE', ( #57 ), #150, .T. ) ;
#43 =( NAMED_UNIT ( * ) SI_UNIT ( $, .STERADIAN. ) SOLID_ANGLE_UNIT ( ) );
#44 =( LENGTH_UNIT ( ) NAMED_UNIT ( * ) SI_UNIT ( .MILLI., .METRE. ) );
#45 = PLANE ( 'NONE',  #99 ) ;
#46 = PRESENTATION_STYLE_ASSIGNMENT (( #158 ) ) ;
#47 = COLOUR_RGB ( '',0.7921568627450980005, 0.8196078431372548767, 0.9333333333333333481 ) ;
#48 = EDGE_LOOP ( 'NONE', ( #53 ) ) ;
#49 = AXIS2_PLACEMENT_3D ( 'NONE', #16, #3, #134 ) ;
#50 = EDGE_LOOP ( 'NONE', ( #161 ) ) ;
#51 = EDGE_CURVE ( 'NONE', #82, #82, #153, .T. ) ;
#52 = PRESENTATION_STYLE_ASSIGNMENT (( #85 ) ) ;
#53 = ORIENTED_EDGE ( 'NONE', *, *, #29, .F. ) ;
#54 = EDGE_LOOP ( 'NONE', ( #119 ) ) ;
#55 = CARTESIAN_POINT ( 'NONE',  ( -1.347111479062088257E-16, 0.0000000000000000000, 0.0000000000000000000 ) ) ;
#56 = DIRECTION ( 'NONE',  ( 1.000000000000000000, 0.0000000000000000000, 0.0000000000000000000 ) ) ;
#57 = FACE_OUTER_BOUND ( 'NONE', #129, .T. ) ;
#58 = DIRECTION ( 'NONE',  ( 0.0000000000000000000, 0.0000000000000000000, 1.000000000000000000 ) ) ;
#59 = CARTESIAN_POINT ( 'NONE',  ( -1.347111479062088257E-16, 0.0000000000000000000, -1.759999999999990683 ) ) ;
#60 = APPLICATION_PROTOCOL_DEFINITION ( 'draft international standard', 'automotive_design', 1998, #157 ) ;
#61 =( LENGTH_UNIT ( ) NAMED_UNIT ( * ) SI_UNIT ( .MILLI., .METRE. ) );
#62 = PRESENTATION_STYLE_ASSIGNMENT (( #100 ) ) ;
#63 = MECHANICAL_DESIGN_GEOMETRIC_PRESENTATION_REPRESENTATION (  '', ( #210 ), #205 ) ;
#64 = CARTESIAN_POINT ( 'NONE',  ( 33.00000000000000000, 0.0000000000000000000, 0.0000000000000000000 ) ) ;
#65 = DIRECTION ( 'NONE',  ( 1.000000000000000000, 0.0000000000000000000, 0.0000000000000000000 ) ) ;
#66 = VERTEX_POINT ( 'NONE', #133 ) ;
#67 = CARTESIAN_POINT ( 'NONE',  ( 0.0000000000000000000, 0.0000000000000000000, 0.0000000000000000000 ) ) ;
#68 = FACE_BOUND ( 'NONE', #81, .T. ) ;
#69 = FACE_OUTER_BOUND ( 'NONE', #54, .T. ) ;
#70 = FILL_AREA_STYLE ('',( #186 ) ) ;
#71 =( NAMED_UNIT ( * ) SI_UNIT ( $, .STERADIAN. ) SOLID_ANGLE_UNIT ( ) );
#72 = ORIENTED_EDGE ( 'NONE', *, *, #41, .T. ) ;
#73 = DIRECTION ( 'NONE',  ( 0.0000000000000000000, 0.0000000000000000000, 1.000000000000000000 ) ) ;
#74 = PRESENTATION_LAYER_ASSIGNMENT (  '', '', ( #210 ) ) ;
#75 = CARTESIAN_POINT ( 'NONE',  ( 0.0000000000000000000, 0.0000000000000000000, 0.0000000000000000000 ) ) ;
#76 = ORIENTED_EDGE ( 'NONE', *, *, #13, .T. ) ;
#77 = DIRECTION ( 'NONE',  ( 1.000000000000000000, 0.0000000000000000000, 0.0000000000000000000 ) ) ;
#78 = UNCERTAINTY_MEASURE_WITH_UNIT (LENGTH_MEASURE( 1.000000000000000082E-05 ), #181, 'distance_accuracy_value', 'NONE');
#79 = FILL_AREA_STYLE ('',( #112 ) ) ;
#80 =( NAMED_UNIT ( * ) PLANE_ANGLE_UNIT ( ) SI_UNIT ( $, .RADIAN. ) );
#81 = EDGE_LOOP ( 'NONE', ( #39 ) ) ;
#82 = VERTEX_POINT ( 'NONE', #173 ) ;
#83 = PRESENTATION_LAYER_ASSIGNMENT (  '', '', ( #188 ) ) ;
#84 = SURFACE_STYLE_FILL_AREA ( #26 ) ;
#85 = SURFACE_STYLE_USAGE ( .BOTH. , #35 ) ;
#86 = ADVANCED_FACE ( 'NONE', ( #177 ), #200, .F. ) ;
#87 =( LENGTH_UNIT ( ) NAMED_UNIT ( * ) SI_UNIT ( .MILLI., .METRE. ) );
#88 =( NAMED_UNIT ( * ) PLANE_ANGLE_UNIT ( ) SI_UNIT ( $, .RADIAN. ) );
#89 = FACE_OUTER_BOUND ( 'NONE', #10, .T. ) ;
#90 = SURFACE_STYLE_USAGE ( .BOTH. , #189 ) ;
#91 = PRODUCT_CONTEXT ( 'NONE', #204, 'mechanical' ) ;
#92 = AXIS2_PLACEMENT_3D ( 'NONE', #33, #77, #180 ) ;
#93 = CARTESIAN_POINT ( 'NONE',  ( -1.347111479062088257E-16, 0.0000000000000000000, 0.0000000000000000000 ) ) ;
#94 = CLOSED_SHELL ( 'NONE', ( #86, #170, #40 ) ) ;
#95 = UNCERTAINTY_MEASURE_WITH_UNIT (LENGTH_MEASURE( 1.000000000000000082E-05 ), #206, 'distance_accuracy_value', 'NONE');
#96 = DIRECTION ( 'NONE',  ( 0.0000000000000000000, 0.0000000000000000000, 1.000000000000000000 ) ) ;
#97 = FACE_OUTER_BOUND ( 'NONE', #166, .T. ) ;
#98 = VERTEX_POINT ( 'NONE', #115 ) ;
#99 = AXIS2_PLACEMENT_3D ( 'NONE', #125, #149, #169 ) ;
#100 = SURFACE_STYLE_USAGE ( .BOTH. , #154 ) ;
#101 = ORIENTED_EDGE ( 'NONE', *, *, #51, .T. ) ;
#102 = ORIENTED_EDGE ( 'NONE', *, *, #29, .T. ) ;
#103 = ORIENTED_EDGE ( 'NONE', *, *, #13, .F. ) ;
#104 =( LENGTH_UNIT ( ) NAMED_UNIT ( * ) SI_UNIT ( .MILLI., .METRE. ) );
#105 = MECHANICAL_DESIGN_GEOMETRIC_PRESENTATION_REPRESENTATION (  '', ( #188 ), #8 ) ;
#106 = ADVANCED_FACE ( 'NONE', ( #18 ), #45, .F. ) ;
#107 = FILL_AREA_STYLE_COLOUR ( '', #5 ) ;
#108 =( NAMED_UNIT ( * ) SI_UNIT ( $, .STERADIAN. ) SOLID_ANGLE_UNIT ( ) );
#109 = DIRECTION ( 'NONE',  ( -1.000000000000000000, -0.0000000000000000000, -0.0000000000000000000 ) ) ;
#110 = CARTESIAN_POINT ( 'NONE',  ( 79.08873016277917145, 0.0000000000000000000, 0.0000000000000000000 ) ) ;
#111 =( NAMED_UNIT ( * ) PLANE_ANGLE_UNIT ( ) SI_UNIT ( $, .RADIAN. ) );
#112 = FILL_AREA_STYLE_COLOUR ( '', #147 ) ;
#113 = DIRECTION ( 'NONE',  ( 1.000000000000000000, 0.0000000000000000000, 0.0000000000000000000 ) ) ;
#114 = DIRECTION ( 'NONE',  ( 1.000000000000000000, 0.0000000000000000000, 0.0000000000000000000 ) ) ;
#115 = CARTESIAN_POINT ( 'NONE',  ( 79.08873016277917145, 0.0000000000000000000, 2.200000000000009504 ) ) ;
#116 =( GEOMETRIC_REPRESENTATION_CONTEXT ( 3 ) GLOBAL_UNCERTAINTY_ASSIGNED_CONTEXT ( ( #128 ) ) GLOBAL_UNIT_ASSIGNED_CONTEXT ( ( #104, #111, #43 ) ) REPRESENTATION_CONTEXT ( 'NONE', 'WORKASPACE' ) );
#117 =( NAMED_UNIT ( * ) SI_UNIT ( $, .STERADIAN. ) SOLID_ANGLE_UNIT ( ) );
#118 = FILL_AREA_STYLE_COLOUR ( '', #212 ) ;
#119 = ORIENTED_EDGE ( 'NONE', *, *, #7, .F. ) ;
#120 = AXIS2_PLACEMENT_3D ( 'NONE', #55, #167, #182 ) ;
#121 = SURFACE_STYLE_FILL_AREA ( #19 ) ;
#122 = MECHANICAL_DESIGN_GEOMETRIC_PRESENTATION_REPRESENTATION (  '', ( #151 ), #116 ) ;
#123 = PRODUCT_RELATED_PRODUCT_CATEGORY ( 'part', '', ( #132 ) ) ;
#124 = MECHANICAL_DESIGN_GEOMETRIC_PRESENTATION_REPRESENTATION (  '', ( #37 ), #143 ) ;
#125 = CARTESIAN_POINT ( 'NONE',  ( -1.347111479062088257E-16, 2.199999999999999734, 0.0000000000000000000 ) ) ;
#126 = FACE_OUTER_BOUND ( 'NONE', #50, .T. ) ;
#127 = VERTEX_POINT ( 'NONE', #59 ) ;
#128 = UNCERTAINTY_MEASURE_WITH_UNIT (LENGTH_MEASURE( 1.000000000000000082E-05 ), #104, 'distance_accuracy_value', 'NONE');
#129 = EDGE_LOOP ( 'NONE', ( #76 ) ) ;
#130 = EDGE_LOOP ( 'NONE', ( #72 ) ) ;
#131 = COLOUR_RGB ( '',0.7921568627450980005, 0.8196078431372548767, 0.9333333333333333481 ) ;
#132 = PRODUCT ( '03-1650', '03-1650', '', ( #91 ) ) ;
#133 = CARTESIAN_POINT ( 'NONE',  ( 33.00000000000000000, 0.0000000000000000000, -2.200000000000005063 ) ) ;
#134 = DIRECTION ( 'NONE',  ( 0.0000000000000000000, 0.0000000000000000000, -1.000000000000000000 ) ) ;
#135 = EDGE_LOOP ( 'NONE', ( #11 ) ) ;
#136 = SURFACE_SIDE_STYLE ('',( #84 ) ) ;
#137 = SHAPE_DEFINITION_REPRESENTATION ( #22, #4 ) ;
#138 = PRESENTATION_LAYER_ASSIGNMENT (  '', '', ( #151 ) ) ;
#139 = PRODUCT_DEFINITION_FORMATION_WITH_SPECIFIED_SOURCE ( 'ANY', '', #132, .NOT_KNOWN. ) ;
#140 = CIRCLE ( 'NONE', #92, 2.200000000000005063 ) ;
#141 = PRODUCT_DEFINITION_CONTEXT ( 'detailed design', #157, 'design' ) ;
#142 = CONICAL_SURFACE ( 'NONE', #193, 1.759999999999990683, 0.7853981633974375098 ) ;
#143 =( GEOMETRIC_REPRESENTATION_CONTEXT ( 3 ) GLOBAL_UNCERTAINTY_ASSIGNED_CONTEXT ( ( #31 ) ) GLOBAL_UNIT_ASSIGNED_CONTEXT ( ( #87, #88, #6 ) ) REPRESENTATION_CONTEXT ( 'NONE', 'WORKASPACE' ) );
#144 = MANIFOLD_SOLID_BREP ( 'ºÐÇÒ2[1]', #27 ) ;
#145 = CIRCLE ( 'NONE', #120, 1.759999999999990683 ) ;
#146 = FILL_AREA_STYLE ('',( #107 ) ) ;
#147 = COLOUR_RGB ( '',1.000000000000000000, 1.000000000000000000, 0.0000000000000000000 ) ;
#148 = PRESENTATION_LAYER_ASSIGNMENT (  '', '', ( #30 ) ) ;
#149 = DIRECTION ( 'NONE',  ( 1.000000000000000000, 0.0000000000000000000, 0.0000000000000000000 ) ) ;
#150 = PLANE ( 'NONE',  #159 ) ;
#151 = STYLED_ITEM ( 'NONE', ( #62 ), #170 ) ;
#152 = PRODUCT_DEFINITION ( 'UNKNOWN', '', #139, #141 ) ;
#153 = CIRCLE ( 'NONE', #179, 2.200000000000005063 ) ;
#154 = SURFACE_SIDE_STYLE ('',( #21 ) ) ;
#155 = AXIS2_PLACEMENT_3D ( 'NONE', #67, #1, #58 ) ;
#156 = CARTESIAN_POINT ( 'NONE',  ( 0.4400000000000235945, 0.0000000000000000000, -2.200000000000005063 ) ) ;
#157 = APPLICATION_CONTEXT ( 'automotive_design' ) ;
#158 = SURFACE_STYLE_USAGE ( .BOTH. , #136 ) ;
#159 = AXIS2_PLACEMENT_3D ( 'NONE', #25, #56, #2 ) ;
#160 = CARTESIAN_POINT ( 'NONE',  ( 0.0000000000000000000, 0.0000000000000000000, 0.0000000000000000000 ) ) ;
#161 = ORIENTED_EDGE ( 'NONE', *, *, #7, .T. ) ;
#162 = SURFACE_SIDE_STYLE ('',( #176 ) ) ;
#163 = AXIS2_PLACEMENT_3D ( 'NONE', #160, #73, #190 ) ;
#164 =( GEOMETRIC_REPRESENTATION_CONTEXT ( 3 ) GLOBAL_UNCERTAINTY_ASSIGNED_CONTEXT ( ( #17 ) ) GLOBAL_UNIT_ASSIGNED_CONTEXT ( ( #44, #198, #71 ) ) REPRESENTATION_CONTEXT ( 'NONE', 'WORKASPACE' ) );
#165 =( NAMED_UNIT ( * ) SI_UNIT ( $, .STERADIAN. ) SOLID_ANGLE_UNIT ( ) );
#166 = EDGE_LOOP ( 'NONE', ( #102 ) ) ;
#167 = DIRECTION ( 'NONE',  ( -1.000000000000000000, -0.0000000000000000000, -0.0000000000000000000 ) ) ;
#168 = SURFACE_STYLE_USAGE ( .BOTH. , #162 ) ;
#169 = DIRECTION ( 'NONE',  ( 0.0000000000000000000, 0.0000000000000000000, -1.000000000000000000 ) ) ;
#170 = ADVANCED_FACE ( 'NONE', ( #89, #126 ), #24, .T. ) ;
#171 = AXIS2_PLACEMENT_3D ( 'NONE', #12, #34, #201 ) ;
#172 = CIRCLE ( 'NONE', #185, 2.200000000000009504 ) ;
#173 = CARTESIAN_POINT ( 'NONE',  ( 33.00000000000000000, 0.0000000000000000000, -2.200000000000005063 ) ) ;
#174 = AXIS2_PLACEMENT_3D ( 'NONE', #75, #178, #96 ) ;
#175 = PRESENTATION_LAYER_ASSIGNMENT (  '', '', ( #37 ) ) ;
#176 = SURFACE_STYLE_FILL_AREA ( #79 ) ;
#177 = FACE_OUTER_BOUND ( 'NONE', #135, .T. ) ;
#178 = DIRECTION ( 'NONE',  ( -1.000000000000000000, -0.0000000000000000000, -0.0000000000000000000 ) ) ;
#179 = AXIS2_PLACEMENT_3D ( 'NONE', #64, #113, #36 ) ;
#180 = DIRECTION ( 'NONE',  ( 0.0000000000000000000, 0.0000000000000000000, -1.000000000000000000 ) ) ;
#181 =( LENGTH_UNIT ( ) NAMED_UNIT ( * ) SI_UNIT ( .MILLI., .METRE. ) );
#182 = DIRECTION ( 'NONE',  ( 0.0000000000000000000, 0.0000000000000000000, -1.000000000000000000 ) ) ;
#183 = EDGE_LOOP ( 'NONE', ( #103 ) ) ;
#184 = APPLICATION_PROTOCOL_DEFINITION ( 'draft international standard', 'automotive_design', 1998, #204 ) ;
#185 = AXIS2_PLACEMENT_3D ( 'NONE', #110, #109, #15 ) ;
#186 = FILL_AREA_STYLE_COLOUR ( '', #47 ) ;
#187 = FILL_AREA_STYLE_COLOUR ( '', #131 ) ;
#188 = STYLED_ITEM ( 'NONE', ( #195 ), #199 ) ;
#189 = SURFACE_SIDE_STYLE ('',( #203 ) ) ;
#190 = DIRECTION ( 'NONE',  ( 1.000000000000000000, 0.0000000000000000000, 0.0000000000000000000 ) ) ;
#191 = DIRECTION ( 'NONE',  ( 0.0000000000000000000, 0.0000000000000000000, -1.000000000000000000 ) ) ;
#192 = UNCERTAINTY_MEASURE_WITH_UNIT (LENGTH_MEASURE( 1.000000000000000082E-05 ), #61, 'distance_accuracy_value', 'NONE');
#193 = AXIS2_PLACEMENT_3D ( 'NONE', #93, #114, #196 ) ;
#194 = FACE_OUTER_BOUND ( 'NONE', #183, .T. ) ;
#195 = PRESENTATION_STYLE_ASSIGNMENT (( #90 ) ) ;
#196 = DIRECTION ( 'NONE',  ( 0.0000000000000000000, 0.0000000000000000000, -1.000000000000000000 ) ) ;
#197 =( GEOMETRIC_REPRESENTATION_CONTEXT ( 3 ) GLOBAL_UNCERTAINTY_ASSIGNED_CONTEXT ( ( #192 ) ) GLOBAL_UNIT_ASSIGNED_CONTEXT ( ( #61, #207, #108 ) ) REPRESENTATION_CONTEXT ( 'NONE', 'WORKASPACE' ) );
#198 =( NAMED_UNIT ( * ) PLANE_ANGLE_UNIT ( ) SI_UNIT ( $, .RADIAN. ) );
#199 = MANIFOLD_SOLID_BREP ( 'ºÐÇÒ2[2]', #94 ) ;
#200 = PLANE ( 'NONE',  #49 ) ;
#201 = DIRECTION ( 'NONE',  ( 0.0000000000000000000, 0.0000000000000000000, 1.000000000000000000 ) ) ;
#202 = FACE_OUTER_BOUND ( 'NONE', #48, .T. ) ;
#203 = SURFACE_STYLE_FILL_AREA ( #70 ) ;
#204 = APPLICATION_CONTEXT ( 'automotive_design' ) ;
#205 =( GEOMETRIC_REPRESENTATION_CONTEXT ( 3 ) GLOBAL_UNCERTAINTY_ASSIGNED_CONTEXT ( ( #78 ) ) GLOBAL_UNIT_ASSIGNED_CONTEXT ( ( #181, #80, #165 ) ) REPRESENTATION_CONTEXT ( 'NONE', 'WORKASPACE' ) );
#206 =( LENGTH_UNIT ( ) NAMED_UNIT ( * ) SI_UNIT ( .MILLI., .METRE. ) );
#207 =( NAMED_UNIT ( * ) PLANE_ANGLE_UNIT ( ) SI_UNIT ( $, .RADIAN. ) );
#208 = CARTESIAN_POINT ( 'NONE',  ( 33.00000000000000000, 0.0000000000000000000, 0.0000000000000000000 ) ) ;
#209 = AXIS2_PLACEMENT_3D ( 'NONE', #208, #65, #191 ) ;
#210 = STYLED_ITEM ( 'NONE', ( #32 ), #40 ) ;
#211 = CIRCLE ( 'NONE', #209, 2.200000000000005063 ) ;
#212 = COLOUR_RGB ( '',0.7921568627450980005, 0.8196078431372548767, 0.9333333333333333481 ) ;
#213 = CONICAL_SURFACE ( 'NONE', #171, 2414.213562373059176, 1.178097245096167311 ) ;
ENDSEC;
END-ISO-10303-21;
