ISO-10303-21;
HEADER;
FILE_DESCRIPTION (( 'STEP AP214' ),
    '1' );
FILE_NAME ('03-1652.STEP',
    '2021-10-01T05:28:32',
    ( 'USER' ),
    ( '' ),
    'SwSTEP 2.0',
    'SolidWorks 2018',
    '' );
FILE_SCHEMA (( 'AUTOMOTIVE_DESIGN' ));
ENDSEC;

DATA;
#1 = SURFACE_SIDE_STYLE ('',( #34 ) ) ;
#2 = SURFACE_STYLE_USAGE ( .BOTH. , #1 ) ;
#3 = CARTESIAN_POINT ( 'NONE',  ( 33.00000000000000000, 0.0000000000000000000, -2.300000000000005151 ) ) ;
#4 = FACE_BOUND ( 'NONE', #62, .T. ) ;
#5 = EDGE_CURVE ( 'NONE', #142, #142, #32, .T. ) ;
#6 =( LENGTH_UNIT ( ) NAMED_UNIT ( * ) SI_UNIT ( .MILLI., .METRE. ) );
#7 = FACE_OUTER_BOUND ( 'NONE', #212, .T. ) ;
#8 = DIRECTION ( 'NONE',  ( 0.0000000000000000000, 0.0000000000000000000, -1.000000000000000000 ) ) ;
#9 = UNCERTAINTY_MEASURE_WITH_UNIT (LENGTH_MEASURE( 1.000000000000000082E-05 ), #163, 'distance_accuracy_value', 'NONE');
#10 =( NAMED_UNIT ( * ) PLANE_ANGLE_UNIT ( ) SI_UNIT ( $, .RADIAN. ) );
#11 = COLOUR_RGB ( '',0.7921568627450980005, 0.8196078431372548767, 0.9333333333333333481 ) ;
#12 = ORIENTED_EDGE ( 'NONE', *, *, #20, .F. ) ;
#13 = COLOUR_RGB ( '',0.7921568627450980005, 0.8196078431372548767, 0.9333333333333333481 ) ;
#14 = FILL_AREA_STYLE_COLOUR ( '', #176 ) ;
#15 = PRESENTATION_LAYER_ASSIGNMENT (  '', '', ( #90 ) ) ;
#16 = EDGE_LOOP ( 'NONE', ( #131 ) ) ;
#17 = DIRECTION ( 'NONE',  ( 1.000000000000000000, 0.0000000000000000000, 0.0000000000000000000 ) ) ;
#18 = FACE_OUTER_BOUND ( 'NONE', #51, .T. ) ;
#19 = CARTESIAN_POINT ( 'NONE',  ( 79.04730880654187786, 0.0000000000000000000, 0.0000000000000000000 ) ) ;
#20 = EDGE_CURVE ( 'NONE', #42, #42, #119, .T. ) ;
#21 = CARTESIAN_POINT ( 'NONE',  ( 0.4600000000000276090, 0.0000000000000000000, 0.0000000000000000000 ) ) ;
#22 = CYLINDRICAL_SURFACE ( 'NONE', #105, 2.300000000000005151 ) ;
#23 = EDGE_LOOP ( 'NONE', ( #70 ) ) ;
#24 = SURFACE_SIDE_STYLE ('',( #101 ) ) ;
#25 = DIRECTION ( 'NONE',  ( 0.0000000000000000000, 0.0000000000000000000, -1.000000000000000000 ) ) ;
#26 = DIRECTION ( 'NONE',  ( 0.0000000000000000000, 0.0000000000000000000, 1.000000000000000000 ) ) ;
#27 = DIRECTION ( 'NONE',  ( -1.000000000000000000, -0.0000000000000000000, -0.0000000000000000000 ) ) ;
#28 = DIRECTION ( 'NONE',  ( 0.0000000000000000000, 0.0000000000000000000, 1.000000000000000000 ) ) ;
#29 = CARTESIAN_POINT ( 'NONE',  ( 0.0000000000000000000, 0.0000000000000000000, 0.0000000000000000000 ) ) ;
#30 = EDGE_LOOP ( 'NONE', ( #161 ) ) ;
#31 = ORIENTED_EDGE ( 'NONE', *, *, #38, .F. ) ;
#32 = CIRCLE ( 'NONE', #150, 2.300000000000009592 ) ;
#33 = ORIENTED_EDGE ( 'NONE', *, *, #208, .T. ) ;
#34 = SURFACE_STYLE_FILL_AREA ( #182 ) ;
#35 = CYLINDRICAL_SURFACE ( 'NONE', #57, 2.300000000000005151 ) ;
#36 = CLOSED_SHELL ( 'NONE', ( #173, #186, #198 ) ) ;
#37 = FACE_OUTER_BOUND ( 'NONE', #23, .T. ) ;
#38 = EDGE_CURVE ( 'NONE', #116, #116, #39, .T. ) ;
#39 = CIRCLE ( 'NONE', #146, 2.300000000000005151 ) ;
#40 = DIRECTION ( 'NONE',  ( -1.000000000000000000, -0.0000000000000000000, -0.0000000000000000000 ) ) ;
#41 = SURFACE_STYLE_FILL_AREA ( #136 ) ;
#42 = VERTEX_POINT ( 'NONE', #83 ) ;
#43 = CARTESIAN_POINT ( 'NONE',  ( -1.408343819019456521E-16, 0.0000000000000000000, 0.0000000000000000000 ) ) ;
#44 = ADVANCED_FACE ( 'NONE', ( #122, #47 ), #35, .T. ) ;
#45 = CARTESIAN_POINT ( 'NONE',  ( 33.00000000000000000, 0.0000000000000000000, 0.0000000000000000000 ) ) ;
#46 = DIRECTION ( 'NONE',  ( -1.000000000000000000, -0.0000000000000000000, -0.0000000000000000000 ) ) ;
#47 = FACE_OUTER_BOUND ( 'NONE', #49, .T. ) ;
#48 = CARTESIAN_POINT ( 'NONE',  ( -920.0000000000000000, 0.0000000000000000000, 0.0000000000000000000 ) ) ;
#49 = EDGE_LOOP ( 'NONE', ( #31 ) ) ;
#50 = CIRCLE ( 'NONE', #120, 1.839999999999973657 ) ;
#51 = EDGE_LOOP ( 'NONE', ( #12 ) ) ;
#52 =( NAMED_UNIT ( * ) SI_UNIT ( $, .STERADIAN. ) SOLID_ANGLE_UNIT ( ) );
#53 =( NAMED_UNIT ( * ) SI_UNIT ( $, .STERADIAN. ) SOLID_ANGLE_UNIT ( ) );
#54 =( NAMED_UNIT ( * ) SI_UNIT ( $, .STERADIAN. ) SOLID_ANGLE_UNIT ( ) );
#55 = ORIENTED_EDGE ( 'NONE', *, *, #188, .F. ) ;
#56 = DIRECTION ( 'NONE',  ( 0.0000000000000000000, 0.0000000000000000000, -1.000000000000000000 ) ) ;
#57 = AXIS2_PLACEMENT_3D ( 'NONE', #85, #68, #26 ) ;
#58 = PRODUCT_DEFINITION_CONTEXT ( 'detailed design', #178, 'design' ) ;
#59 = PRESENTATION_STYLE_ASSIGNMENT (( #114 ) ) ;
#60 = PRESENTATION_STYLE_ASSIGNMENT (( #2 ) ) ;
#61 = PLANE ( 'NONE',  #179 ) ;
#62 = EDGE_LOOP ( 'NONE', ( #55 ) ) ;
#63 = ADVANCED_FACE ( 'NONE', ( #37 ), #207, .F. ) ;
#64 = ORIENTED_EDGE ( 'NONE', *, *, #5, .F. ) ;
#65 = CARTESIAN_POINT ( 'NONE',  ( 33.00000000000000000, 0.0000000000000000000, 0.0000000000000000000 ) ) ;
#66 = STYLED_ITEM ( 'NONE', ( #144 ), #206 ) ;
#67 =( NAMED_UNIT ( * ) PLANE_ANGLE_UNIT ( ) SI_UNIT ( $, .RADIAN. ) );
#68 = DIRECTION ( 'NONE',  ( -1.000000000000000000, -0.0000000000000000000, -0.0000000000000000000 ) ) ;
#69 = EDGE_LOOP ( 'NONE', ( #33 ) ) ;
#70 = ORIENTED_EDGE ( 'NONE', *, *, #188, .T. ) ;
#71 = FACE_OUTER_BOUND ( 'NONE', #184, .T. ) ;
#72 = DIRECTION ( 'NONE',  ( 0.0000000000000000000, 0.0000000000000000000, -1.000000000000000000 ) ) ;
#73 = MECHANICAL_DESIGN_GEOMETRIC_PRESENTATION_REPRESENTATION (  '', ( #165 ), #84 ) ;
#74 = FACE_OUTER_BOUND ( 'NONE', #104, .T. ) ;
#75 = COLOUR_RGB ( '',0.7921568627450980005, 0.8196078431372548767, 0.9333333333333333481 ) ;
#76 = DIRECTION ( 'NONE',  ( 0.0000000000000000000, 0.0000000000000000000, 1.000000000000000000 ) ) ;
#77 = PRESENTATION_STYLE_ASSIGNMENT (( #199 ) ) ;
#78 =( LENGTH_UNIT ( ) NAMED_UNIT ( * ) SI_UNIT ( .MILLI., .METRE. ) );
#79 =( LENGTH_UNIT ( ) NAMED_UNIT ( * ) SI_UNIT ( .MILLI., .METRE. ) );
#80 = CONICAL_SURFACE ( 'NONE', #172, 1.839999999999973657, 0.7853981633974524978 ) ;
#81 = CARTESIAN_POINT ( 'NONE',  ( 33.00000000000000000, 0.0000000000000000000, -2.300000000000005151 ) ) ;
#82 = CARTESIAN_POINT ( 'NONE',  ( 33.00000000000000000, 0.0000000000000000000, 0.0000000000000000000 ) ) ;
#83 = CARTESIAN_POINT ( 'NONE',  ( 0.4600000000000276090, 0.0000000000000000000, -2.300000000000005151 ) ) ;
#84 =( GEOMETRIC_REPRESENTATION_CONTEXT ( 3 ) GLOBAL_UNCERTAINTY_ASSIGNED_CONTEXT ( ( #170 ) ) GLOBAL_UNIT_ASSIGNED_CONTEXT ( ( #192, #154, #52 ) ) REPRESENTATION_CONTEXT ( 'NONE', 'WORKASPACE' ) );
#85 = CARTESIAN_POINT ( 'NONE',  ( 0.0000000000000000000, 0.0000000000000000000, 0.0000000000000000000 ) ) ;
#86 = DIRECTION ( 'NONE',  ( -1.000000000000000000, -0.0000000000000000000, -0.0000000000000000000 ) ) ;
#87 =( NAMED_UNIT ( * ) SI_UNIT ( $, .STERADIAN. ) SOLID_ANGLE_UNIT ( ) );
#88 = DIRECTION ( 'NONE',  ( 0.0000000000000000000, 0.0000000000000000000, -1.000000000000000000 ) ) ;
#89 = CIRCLE ( 'NONE', #162, 2.300000000000005151 ) ;
#90 = STYLED_ITEM ( 'NONE', ( #60 ), #198 ) ;
#91 = DIRECTION ( 'NONE',  ( 1.000000000000000000, 0.0000000000000000000, 0.0000000000000000000 ) ) ;
#92 = CARTESIAN_POINT ( 'NONE',  ( 0.0000000000000000000, 0.0000000000000000000, 0.0000000000000000000 ) ) ;
#93 = FILL_AREA_STYLE_COLOUR ( '', #75 ) ;
#94 = CARTESIAN_POINT ( 'NONE',  ( 79.04730880654187786, 0.0000000000000000000, 2.300000000000009592 ) ) ;
#95 = FILL_AREA_STYLE_COLOUR ( '', #13 ) ;
#96 = FILL_AREA_STYLE ('',( #95 ) ) ;
#97 = CONICAL_SURFACE ( 'NONE', #196, 2414.213562373076911, 1.178097245096169754 ) ;
#98 = SURFACE_SIDE_STYLE ('',( #103 ) ) ;
#99 = SURFACE_STYLE_FILL_AREA ( #164 ) ;
#100 = PRESENTATION_STYLE_ASSIGNMENT (( #139 ) ) ;
#101 = SURFACE_STYLE_FILL_AREA ( #135 ) ;
#102 = SURFACE_STYLE_USAGE ( .BOTH. , #98 ) ;
#103 = SURFACE_STYLE_FILL_AREA ( #96 ) ;
#104 = EDGE_LOOP ( 'NONE', ( #128 ) ) ;
#105 = AXIS2_PLACEMENT_3D ( 'NONE', #92, #86, #28 ) ;
#106 =( LENGTH_UNIT ( ) NAMED_UNIT ( * ) SI_UNIT ( .MILLI., .METRE. ) );
#107 = CLOSED_SHELL ( 'NONE', ( #44, #63, #124, #137 ) ) ;
#108 = COLOUR_RGB ( '',1.000000000000000000, 1.000000000000000000, 0.0000000000000000000 ) ;
#109 = DIRECTION ( 'NONE',  ( 1.000000000000000000, 0.0000000000000000000, 0.0000000000000000000 ) ) ;
#110 = FILL_AREA_STYLE_COLOUR ( '', #108 ) ;
#111 =( NAMED_UNIT ( * ) PLANE_ANGLE_UNIT ( ) SI_UNIT ( $, .RADIAN. ) );
#112 = PRODUCT_RELATED_PRODUCT_CATEGORY ( 'part', '', ( #204 ) ) ;
#113 = FACE_OUTER_BOUND ( 'NONE', #30, .T. ) ;
#114 = SURFACE_STYLE_USAGE ( .BOTH. , #174 ) ;
#115 =( NAMED_UNIT ( * ) SI_UNIT ( $, .STERADIAN. ) SOLID_ANGLE_UNIT ( ) );
#116 = VERTEX_POINT ( 'NONE', #81 ) ;
#117 = DIRECTION ( 'NONE',  ( 0.0000000000000000000, 0.0000000000000000000, 1.000000000000000000 ) ) ;
#118 = FACE_OUTER_BOUND ( 'NONE', #69, .T. ) ;
#119 = CIRCLE ( 'NONE', #147, 2.300000000000005151 ) ;
#120 = AXIS2_PLACEMENT_3D ( 'NONE', #43, #46, #88 ) ;
#121 = DIRECTION ( 'NONE',  ( 1.000000000000000000, 0.0000000000000000000, 0.0000000000000000000 ) ) ;
#122 = FACE_OUTER_BOUND ( 'NONE', #16, .T. ) ;
#123 =( GEOMETRIC_REPRESENTATION_CONTEXT ( 3 ) GLOBAL_UNCERTAINTY_ASSIGNED_CONTEXT ( ( #9 ) ) GLOBAL_UNIT_ASSIGNED_CONTEXT ( ( #163, #67, #211 ) ) REPRESENTATION_CONTEXT ( 'NONE', 'WORKASPACE' ) );
#124 = ADVANCED_FACE ( 'NONE', ( #18, #4 ), #80, .T. ) ;
#125 = CARTESIAN_POINT ( 'NONE',  ( -1.408343819019456521E-16, 0.0000000000000000000, 0.0000000000000000000 ) ) ;
#126 = UNCERTAINTY_MEASURE_WITH_UNIT (LENGTH_MEASURE( 1.000000000000000082E-05 ), #78, 'distance_accuracy_value', 'NONE');
#127 = DIRECTION ( 'NONE',  ( 1.000000000000000000, 0.0000000000000000000, 0.0000000000000000000 ) ) ;
#128 = ORIENTED_EDGE ( 'NONE', *, *, #208, .F. ) ;
#129 = MECHANICAL_DESIGN_GEOMETRIC_PRESENTATION_REPRESENTATION (  '', ( #148 ), #123 ) ;
#130 = DIRECTION ( 'NONE',  ( 1.000000000000000000, 0.0000000000000000000, 0.0000000000000000000 ) ) ;
#131 = ORIENTED_EDGE ( 'NONE', *, *, #20, .T. ) ;
#132 = PRESENTATION_LAYER_ASSIGNMENT (  '', '', ( #165 ) ) ;
#133 = DIRECTION ( 'NONE',  ( 0.0000000000000000000, 0.0000000000000000000, -1.000000000000000000 ) ) ;
#134 = PLANE ( 'NONE',  #138 ) ;
#135 = FILL_AREA_STYLE ('',( #110 ) ) ;
#136 = FILL_AREA_STYLE ('',( #93 ) ) ;
#137 = ADVANCED_FACE ( 'NONE', ( #71 ), #134, .T. ) ;
#138 = AXIS2_PLACEMENT_3D ( 'NONE', #65, #127, #171 ) ;
#139 = SURFACE_STYLE_USAGE ( .BOTH. , #24 ) ;
#140 =( GEOMETRIC_REPRESENTATION_CONTEXT ( 3 ) GLOBAL_UNCERTAINTY_ASSIGNED_CONTEXT ( ( #152 ) ) GLOBAL_UNIT_ASSIGNED_CONTEXT ( ( #106, #111, #54 ) ) REPRESENTATION_CONTEXT ( 'NONE', 'WORKASPACE' ) );
#141 = AXIS2_PLACEMENT_3D ( 'NONE', #29, #76, #91 ) ;
#142 = VERTEX_POINT ( 'NONE', #94 ) ;
#143 = AXIS2_PLACEMENT_3D ( 'NONE', #155, #205, #156 ) ;
#144 = PRESENTATION_STYLE_ASSIGNMENT (( #102 ) ) ;
#145 = SURFACE_SIDE_STYLE ('',( #41 ) ) ;
#146 = AXIS2_PLACEMENT_3D ( 'NONE', #149, #130, #25 ) ;
#147 = AXIS2_PLACEMENT_3D ( 'NONE', #21, #17, #8 ) ;
#148 = STYLED_ITEM ( 'NONE', ( #77 ), #167 ) ;
#149 = CARTESIAN_POINT ( 'NONE',  ( 33.00000000000000000, 0.0000000000000000000, 0.0000000000000000000 ) ) ;
#150 = AXIS2_PLACEMENT_3D ( 'NONE', #19, #27, #168 ) ;
#151 = PRODUCT_DEFINITION_SHAPE ( 'NONE', 'NONE',  #175 ) ;
#152 = UNCERTAINTY_MEASURE_WITH_UNIT (LENGTH_MEASURE( 1.000000000000000082E-05 ), #106, 'distance_accuracy_value', 'NONE');
#153 = VERTEX_POINT ( 'NONE', #3 ) ;
#154 =( NAMED_UNIT ( * ) PLANE_ANGLE_UNIT ( ) SI_UNIT ( $, .RADIAN. ) );
#155 = CARTESIAN_POINT ( 'NONE',  ( -1.408343819019456521E-16, 2.300000000000000266, 0.0000000000000000000 ) ) ;
#156 = DIRECTION ( 'NONE',  ( 0.0000000000000000000, 0.0000000000000000000, -1.000000000000000000 ) ) ;
#157 = PRESENTATION_LAYER_ASSIGNMENT (  '', '', ( #148 ) ) ;
#158 = ORIENTED_EDGE ( 'NONE', *, *, #38, .T. ) ;
#159 = MECHANICAL_DESIGN_GEOMETRIC_PRESENTATION_REPRESENTATION (  '', ( #66 ), #140 ) ;
#160 = UNCERTAINTY_MEASURE_WITH_UNIT (LENGTH_MEASURE( 1.000000000000000082E-05 ), #6, 'distance_accuracy_value', 'NONE');
#161 = ORIENTED_EDGE ( 'NONE', *, *, #5, .T. ) ;
#162 = AXIS2_PLACEMENT_3D ( 'NONE', #82, #109, #72 ) ;
#163 =( LENGTH_UNIT ( ) NAMED_UNIT ( * ) SI_UNIT ( .MILLI., .METRE. ) );
#164 = FILL_AREA_STYLE ('',( #189 ) ) ;
#165 = STYLED_ITEM ( 'NONE', ( #100 ), #186 ) ;
#166 = APPLICATION_PROTOCOL_DEFINITION ( 'draft international standard', 'automotive_design', 1998, #178 ) ;
#167 = MANIFOLD_SOLID_BREP ( 'ºÐÇÒ2[2]', #36 ) ;
#168 = DIRECTION ( 'NONE',  ( 0.0000000000000000000, 0.0000000000000000000, 1.000000000000000000 ) ) ;
#169 = VERTEX_POINT ( 'NONE', #201 ) ;
#170 = UNCERTAINTY_MEASURE_WITH_UNIT (LENGTH_MEASURE( 1.000000000000000082E-05 ), #192, 'distance_accuracy_value', 'NONE');
#171 = DIRECTION ( 'NONE',  ( 0.0000000000000000000, 0.0000000000000000000, -1.000000000000000000 ) ) ;
#172 = AXIS2_PLACEMENT_3D ( 'NONE', #125, #121, #133 ) ;
#173 = ADVANCED_FACE ( 'NONE', ( #74 ), #61, .F. ) ;
#174 = SURFACE_SIDE_STYLE ('',( #99 ) ) ;
#175 = PRODUCT_DEFINITION ( 'UNKNOWN', '', #194, #58 ) ;
#176 = COLOUR_RGB ( '',1.000000000000000000, 1.000000000000000000, 0.0000000000000000000 ) ;
#177 =( GEOMETRIC_REPRESENTATION_CONTEXT ( 3 ) GLOBAL_UNCERTAINTY_ASSIGNED_CONTEXT ( ( #183 ) ) GLOBAL_UNIT_ASSIGNED_CONTEXT ( ( #79, #181, #53 ) ) REPRESENTATION_CONTEXT ( 'NONE', 'WORKASPACE' ) );
#178 = APPLICATION_CONTEXT ( 'automotive_design' ) ;
#179 = AXIS2_PLACEMENT_3D ( 'NONE', #45, #213, #56 ) ;
#180 = SHAPE_DEFINITION_REPRESENTATION ( #151, #210 ) ;
#181 =( NAMED_UNIT ( * ) PLANE_ANGLE_UNIT ( ) SI_UNIT ( $, .RADIAN. ) );
#182 = FILL_AREA_STYLE ('',( #14 ) ) ;
#183 = UNCERTAINTY_MEASURE_WITH_UNIT (LENGTH_MEASURE( 1.000000000000000082E-05 ), #79, 'distance_accuracy_value', 'NONE');
#184 = EDGE_LOOP ( 'NONE', ( #158 ) ) ;
#185 = APPLICATION_CONTEXT ( 'automotive_design' ) ;
#186 = ADVANCED_FACE ( 'NONE', ( #118, #113 ), #22, .T. ) ;
#187 = STYLED_ITEM ( 'NONE', ( #59 ), #210 ) ;
#188 = EDGE_CURVE ( 'NONE', #169, #169, #50, .T. ) ;
#189 = FILL_AREA_STYLE_COLOUR ( '', #11 ) ;
#190 =( NAMED_UNIT ( * ) PLANE_ANGLE_UNIT ( ) SI_UNIT ( $, .RADIAN. ) );
#191 = PRODUCT_CONTEXT ( 'NONE', #185, 'mechanical' ) ;
#192 =( LENGTH_UNIT ( ) NAMED_UNIT ( * ) SI_UNIT ( .MILLI., .METRE. ) );
#193 =( GEOMETRIC_REPRESENTATION_CONTEXT ( 3 ) GLOBAL_UNCERTAINTY_ASSIGNED_CONTEXT ( ( #126 ) ) GLOBAL_UNIT_ASSIGNED_CONTEXT ( ( #78, #190, #87 ) ) REPRESENTATION_CONTEXT ( 'NONE', 'WORKASPACE' ) );
#194 = PRODUCT_DEFINITION_FORMATION_WITH_SPECIFIED_SOURCE ( 'ANY', '', #204, .NOT_KNOWN. ) ;
#195 = PRESENTATION_LAYER_ASSIGNMENT (  '', '', ( #187 ) ) ;
#196 = AXIS2_PLACEMENT_3D ( 'NONE', #48, #40, #117 ) ;
#197 = PRESENTATION_LAYER_ASSIGNMENT (  '', '', ( #66 ) ) ;
#198 = ADVANCED_FACE ( 'NONE', ( #7 ), #97, .T. ) ;
#199 = SURFACE_STYLE_USAGE ( .BOTH. , #145 ) ;
#200 = APPLICATION_PROTOCOL_DEFINITION ( 'draft international standard', 'automotive_design', 1998, #185 ) ;
#201 = CARTESIAN_POINT ( 'NONE',  ( -1.408343819019456521E-16, 0.0000000000000000000, -1.839999999999973657 ) ) ;
#202 = MECHANICAL_DESIGN_GEOMETRIC_PRESENTATION_REPRESENTATION (  '', ( #187 ), #177 ) ;
#203 =( GEOMETRIC_REPRESENTATION_CONTEXT ( 3 ) GLOBAL_UNCERTAINTY_ASSIGNED_CONTEXT ( ( #160 ) ) GLOBAL_UNIT_ASSIGNED_CONTEXT ( ( #6, #10, #115 ) ) REPRESENTATION_CONTEXT ( 'NONE', 'WORKASPACE' ) );
#204 = PRODUCT ( '03-1652', '03-1652', '', ( #191 ) ) ;
#205 = DIRECTION ( 'NONE',  ( 1.000000000000000000, 0.0000000000000000000, 0.0000000000000000000 ) ) ;
#206 = MANIFOLD_SOLID_BREP ( 'ºÐÇÒ2[1]', #107 ) ;
#207 = PLANE ( 'NONE',  #143 ) ;
#208 = EDGE_CURVE ( 'NONE', #153, #153, #89, .T. ) ;
#209 = MECHANICAL_DESIGN_GEOMETRIC_PRESENTATION_REPRESENTATION (  '', ( #90 ), #203 ) ;
#210 = ADVANCED_BREP_SHAPE_REPRESENTATION ( '03-1652', ( #206, #167, #141 ), #193 ) ;
#211 =( NAMED_UNIT ( * ) SI_UNIT ( $, .STERADIAN. ) SOLID_ANGLE_UNIT ( ) );
#212 = EDGE_LOOP ( 'NONE', ( #64 ) ) ;
#213 = DIRECTION ( 'NONE',  ( 1.000000000000000000, 0.0000000000000000000, 0.0000000000000000000 ) ) ;
ENDSEC;
END-ISO-10303-21;
