ISO-10303-21;
HEADER;
FILE_DESCRIPTION (( 'STEP AP214' ),
    '1' );
FILE_NAME ('03-1653.STEP',
    '2021-10-01T05:28:50',
    ( 'USER' ),
    ( '' ),
    'SwSTEP 2.0',
    'SolidWorks 2018',
    '' );
FILE_SCHEMA (( 'AUTOMOTIVE_DESIGN' ));
ENDSEC;

DATA;
#1 =( NAMED_UNIT ( * ) PLANE_ANGLE_UNIT ( ) SI_UNIT ( $, .RADIAN. ) );
#2 =( LENGTH_UNIT ( ) NAMED_UNIT ( * ) SI_UNIT ( .MILLI., .METRE. ) );
#3 = FACE_OUTER_BOUND ( 'NONE', #119, .T. ) ;
#4 = SURFACE_STYLE_USAGE ( .BOTH. , #6 ) ;
#5 = ORIENTED_EDGE ( 'NONE', *, *, #148, .T. ) ;
#6 = SURFACE_SIDE_STYLE ('',( #210 ) ) ;
#7 = FILL_AREA_STYLE_COLOUR ( '', #143 ) ;
#8 = MANIFOLD_SOLID_BREP ( 'ºÐÇÒ2[1]', #66 ) ;
#9 =( NAMED_UNIT ( * ) PLANE_ANGLE_UNIT ( ) SI_UNIT ( $, .RADIAN. ) );
#10 = MECHANICAL_DESIGN_GEOMETRIC_PRESENTATION_REPRESENTATION (  '', ( #19 ), #123 ) ;
#11 = DIRECTION ( 'NONE',  ( 0.0000000000000000000, 0.0000000000000000000, -1.000000000000000000 ) ) ;
#12 = SURFACE_SIDE_STYLE ('',( #194 ) ) ;
#13 = FACE_OUTER_BOUND ( 'NONE', #36, .T. ) ;
#14 = CARTESIAN_POINT ( 'NONE',  ( -1.438959988998140407E-16, 2.350000000000000533, 0.0000000000000000000 ) ) ;
#15 = PLANE ( 'NONE',  #142 ) ;
#16 = DIRECTION ( 'NONE',  ( 1.000000000000000000, 0.0000000000000000000, 0.0000000000000000000 ) ) ;
#17 = VERTEX_POINT ( 'NONE', #50 ) ;
#18 = CARTESIAN_POINT ( 'NONE',  ( 33.00000000000000000, 0.0000000000000000000, 0.0000000000000000000 ) ) ;
#19 = STYLED_ITEM ( 'NONE', ( #129 ), #197 ) ;
#20 = EDGE_LOOP ( 'NONE', ( #98 ) ) ;
#21 = SURFACE_SIDE_STYLE ('',( #48 ) ) ;
#22 = VERTEX_POINT ( 'NONE', #134 ) ;
#23 = DIRECTION ( 'NONE',  ( -1.000000000000000000, -0.0000000000000000000, -0.0000000000000000000 ) ) ;
#24 = ORIENTED_EDGE ( 'NONE', *, *, #137, .T. ) ;
#25 = CARTESIAN_POINT ( 'NONE',  ( 0.0000000000000000000, 0.0000000000000000000, 0.0000000000000000000 ) ) ;
#26 = MECHANICAL_DESIGN_GEOMETRIC_PRESENTATION_REPRESENTATION (  '', ( #190 ), #132 ) ;
#27 = FILL_AREA_STYLE_COLOUR ( '', #149 ) ;
#28 = EDGE_LOOP ( 'NONE', ( #73 ) ) ;
#29 = CLOSED_SHELL ( 'NONE', ( #94, #130, #39 ) ) ;
#30 = DIRECTION ( 'NONE',  ( 1.000000000000000000, 0.0000000000000000000, 0.0000000000000000000 ) ) ;
#31 = ORIENTED_EDGE ( 'NONE', *, *, #163, .T. ) ;
#32 = VERTEX_POINT ( 'NONE', #206 ) ;
#33 = DIRECTION ( 'NONE',  ( 0.0000000000000000000, 0.0000000000000000000, -1.000000000000000000 ) ) ;
#34 = EDGE_LOOP ( 'NONE', ( #31 ) ) ;
#35 = EDGE_LOOP ( 'NONE', ( #40 ) ) ;
#36 = EDGE_LOOP ( 'NONE', ( #24 ) ) ;
#37 = CARTESIAN_POINT ( 'NONE',  ( 0.4700000000000283951, 0.0000000000000000000, 0.0000000000000000000 ) ) ;
#38 = FACE_BOUND ( 'NONE', #150, .T. ) ;
#39 = ADVANCED_FACE ( 'NONE', ( #144 ), #116, .T. ) ;
#40 = ORIENTED_EDGE ( 'NONE', *, *, #128, .T. ) ;
#41 = DIRECTION ( 'NONE',  ( 0.0000000000000000000, 0.0000000000000000000, -1.000000000000000000 ) ) ;
#42 = AXIS2_PLACEMENT_3D ( 'NONE', #44, #83, #41 ) ;
#43 = CARTESIAN_POINT ( 'NONE',  ( -920.0000000000000000, 0.0000000000000000000, 0.0000000000000000000 ) ) ;
#44 = CARTESIAN_POINT ( 'NONE',  ( 33.00000000000000000, 0.0000000000000000000, 0.0000000000000000000 ) ) ;
#45 = FILL_AREA_STYLE ('',( #27 ) ) ;
#46 = FACE_OUTER_BOUND ( 'NONE', #35, .T. ) ;
#47 = MECHANICAL_DESIGN_GEOMETRIC_PRESENTATION_REPRESENTATION (  '', ( #209 ), #204 ) ;
#48 = SURFACE_STYLE_FILL_AREA ( #108 ) ;
#49 = SURFACE_STYLE_USAGE ( .BOTH. , #100 ) ;
#50 = CARTESIAN_POINT ( 'NONE',  ( 33.00000000000000000, 0.0000000000000000000, -2.350000000000004974 ) ) ;
#51 = PRODUCT_CONTEXT ( 'NONE', #136, 'mechanical' ) ;
#52 = FACE_OUTER_BOUND ( 'NONE', #101, .T. ) ;
#53 = PRESENTATION_LAYER_ASSIGNMENT (  '', '', ( #190 ) ) ;
#54 = ORIENTED_EDGE ( 'NONE', *, *, #128, .F. ) ;
#55 = PLANE ( 'NONE',  #42 ) ;
#56 = CARTESIAN_POINT ( 'NONE',  ( 33.00000000000000000, 0.0000000000000000000, 0.0000000000000000000 ) ) ;
#57 = CIRCLE ( 'NONE', #75, 1.879999999999985905 ) ;
#58 = DIRECTION ( 'NONE',  ( 0.0000000000000000000, 0.0000000000000000000, -1.000000000000000000 ) ) ;
#59 = ORIENTED_EDGE ( 'NONE', *, *, #163, .F. ) ;
#60 = PRESENTATION_LAYER_ASSIGNMENT (  '', '', ( #209 ) ) ;
#61 = FILL_AREA_STYLE_COLOUR ( '', #89 ) ;
#62 = PRODUCT_RELATED_PRODUCT_CATEGORY ( 'part', '', ( #151 ) ) ;
#63 = UNCERTAINTY_MEASURE_WITH_UNIT (LENGTH_MEASURE( 1.000000000000000082E-05 ), #182, 'distance_accuracy_value', 'NONE');
#64 = ORIENTED_EDGE ( 'NONE', *, *, #148, .F. ) ;
#65 = PRESENTATION_LAYER_ASSIGNMENT (  '', '', ( #19 ) ) ;
#66 = CLOSED_SHELL ( 'NONE', ( #193, #181, #196, #184 ) ) ;
#67 = DIRECTION ( 'NONE',  ( 0.0000000000000000000, 0.0000000000000000000, 1.000000000000000000 ) ) ;
#68 = PRESENTATION_STYLE_ASSIGNMENT (( #93 ) ) ;
#69 = AXIS2_PLACEMENT_3D ( 'NONE', #110, #133, #103 ) ;
#70 = DIRECTION ( 'NONE',  ( 0.0000000000000000000, 0.0000000000000000000, 1.000000000000000000 ) ) ;
#71 = FACE_OUTER_BOUND ( 'NONE', #34, .T. ) ;
#72 =( NAMED_UNIT ( * ) SI_UNIT ( $, .STERADIAN. ) SOLID_ANGLE_UNIT ( ) );
#73 = ORIENTED_EDGE ( 'NONE', *, *, #122, .F. ) ;
#74 = EDGE_LOOP ( 'NONE', ( #64 ) ) ;
#75 = AXIS2_PLACEMENT_3D ( 'NONE', #187, #23, #86 ) ;
#76 =( NAMED_UNIT ( * ) PLANE_ANGLE_UNIT ( ) SI_UNIT ( $, .RADIAN. ) );
#77 = UNCERTAINTY_MEASURE_WITH_UNIT (LENGTH_MEASURE( 1.000000000000000082E-05 ), #78, 'distance_accuracy_value', 'NONE');
#78 =( LENGTH_UNIT ( ) NAMED_UNIT ( * ) SI_UNIT ( .MILLI., .METRE. ) );
#79 = VERTEX_POINT ( 'NONE', #208 ) ;
#80 = APPLICATION_PROTOCOL_DEFINITION ( 'draft international standard', 'automotive_design', 1998, #168 ) ;
#81 = DIRECTION ( 'NONE',  ( -1.000000000000000000, -0.0000000000000000000, -0.0000000000000000000 ) ) ;
#82 = DIRECTION ( 'NONE',  ( 0.0000000000000000000, 0.0000000000000000000, -1.000000000000000000 ) ) ;
#83 = DIRECTION ( 'NONE',  ( 1.000000000000000000, 0.0000000000000000000, 0.0000000000000000000 ) ) ;
#84 = PRODUCT_DEFINITION_FORMATION_WITH_SPECIFIED_SOURCE ( 'ANY', '', #151, .NOT_KNOWN. ) ;
#85 =( NAMED_UNIT ( * ) SI_UNIT ( $, .STERADIAN. ) SOLID_ANGLE_UNIT ( ) );
#86 = DIRECTION ( 'NONE',  ( 0.0000000000000000000, 0.0000000000000000000, -1.000000000000000000 ) ) ;
#87 =( NAMED_UNIT ( * ) SI_UNIT ( $, .STERADIAN. ) SOLID_ANGLE_UNIT ( ) );
#88 = SURFACE_STYLE_FILL_AREA ( #97 ) ;
#89 = COLOUR_RGB ( '',0.7921568627450980005, 0.8196078431372548767, 0.9333333333333333481 ) ;
#90 =( NAMED_UNIT ( * ) PLANE_ANGLE_UNIT ( ) SI_UNIT ( $, .RADIAN. ) );
#91 = AXIS2_PLACEMENT_3D ( 'NONE', #18, #16, #11 ) ;
#92 = PRESENTATION_STYLE_ASSIGNMENT (( #126 ) ) ;
#93 = SURFACE_STYLE_USAGE ( .BOTH. , #21 ) ;
#94 = ADVANCED_FACE ( 'NONE', ( #111 ), #55, .F. ) ;
#95 = SHAPE_DEFINITION_REPRESENTATION ( #175, #197 ) ;
#96 = AXIS2_PLACEMENT_3D ( 'NONE', #56, #156, #33 ) ;
#97 = FILL_AREA_STYLE ('',( #99 ) ) ;
#98 = ORIENTED_EDGE ( 'NONE', *, *, #137, .F. ) ;
#99 = FILL_AREA_STYLE_COLOUR ( '', #166 ) ;
#100 = SURFACE_SIDE_STYLE ('',( #88 ) ) ;
#101 = EDGE_LOOP ( 'NONE', ( #5 ) ) ;
#102 = AXIS2_PLACEMENT_3D ( 'NONE', #201, #139, #30 ) ;
#103 = DIRECTION ( 'NONE',  ( 0.0000000000000000000, 0.0000000000000000000, 1.000000000000000000 ) ) ;
#104 = SURFACE_SIDE_STYLE ('',( #199 ) ) ;
#105 = DIRECTION ( 'NONE',  ( 0.0000000000000000000, 0.0000000000000000000, 1.000000000000000000 ) ) ;
#106 = PRODUCT_DEFINITION_CONTEXT ( 'detailed design', #168, 'design' ) ;
#107 = AXIS2_PLACEMENT_3D ( 'NONE', #118, #115, #82 ) ;
#108 = FILL_AREA_STYLE ('',( #61 ) ) ;
#109 = UNCERTAINTY_MEASURE_WITH_UNIT (LENGTH_MEASURE( 1.000000000000000082E-05 ), #113, 'distance_accuracy_value', 'NONE');
#110 = CARTESIAN_POINT ( 'NONE',  ( 79.02659812842320264, 0.0000000000000000000, 0.0000000000000000000 ) ) ;
#111 = FACE_OUTER_BOUND ( 'NONE', #28, .T. ) ;
#112 = STYLED_ITEM ( 'NONE', ( #68 ), #8 ) ;
#113 =( LENGTH_UNIT ( ) NAMED_UNIT ( * ) SI_UNIT ( .MILLI., .METRE. ) );
#114 = DIRECTION ( 'NONE',  ( 0.0000000000000000000, 0.0000000000000000000, -1.000000000000000000 ) ) ;
#115 = DIRECTION ( 'NONE',  ( 1.000000000000000000, 0.0000000000000000000, 0.0000000000000000000 ) ) ;
#116 = CONICAL_SURFACE ( 'NONE', #164, 2414.213562373049172, 1.178097245096165757 ) ;
#117 = PRODUCT_DEFINITION ( 'UNKNOWN', '', #84, #106 ) ;
#118 = CARTESIAN_POINT ( 'NONE',  ( -1.438959988998140407E-16, 0.0000000000000000000, 0.0000000000000000000 ) ) ;
#119 = EDGE_LOOP ( 'NONE', ( #159 ) ) ;
#120 = AXIS2_PLACEMENT_3D ( 'NONE', #177, #191, #105 ) ;
#121 = UNCERTAINTY_MEASURE_WITH_UNIT (LENGTH_MEASURE( 1.000000000000000082E-05 ), #179, 'distance_accuracy_value', 'NONE');
#122 = EDGE_CURVE ( 'NONE', #17, #17, #146, .T. ) ;
#123 =( GEOMETRIC_REPRESENTATION_CONTEXT ( 3 ) GLOBAL_UNCERTAINTY_ASSIGNED_CONTEXT ( ( #109 ) ) GLOBAL_UNIT_ASSIGNED_CONTEXT ( ( #113, #9, #125 ) ) REPRESENTATION_CONTEXT ( 'NONE', 'WORKASPACE' ) );
#124 = CARTESIAN_POINT ( 'NONE',  ( 0.4700000000000283951, 0.0000000000000000000, -2.350000000000004974 ) ) ;
#125 =( NAMED_UNIT ( * ) SI_UNIT ( $, .STERADIAN. ) SOLID_ANGLE_UNIT ( ) );
#126 = SURFACE_STYLE_USAGE ( .BOTH. , #12 ) ;
#127 = CARTESIAN_POINT ( 'NONE',  ( 33.00000000000000000, 0.0000000000000000000, 0.0000000000000000000 ) ) ;
#128 = EDGE_CURVE ( 'NONE', #79, #79, #57, .T. ) ;
#129 = PRESENTATION_STYLE_ASSIGNMENT (( #203 ) ) ;
#130 = ADVANCED_FACE ( 'NONE', ( #3, #13 ), #186, .T. ) ;
#131 = PRESENTATION_STYLE_ASSIGNMENT (( #49 ) ) ;
#132 =( GEOMETRIC_REPRESENTATION_CONTEXT ( 3 ) GLOBAL_UNCERTAINTY_ASSIGNED_CONTEXT ( ( #135 ) ) GLOBAL_UNIT_ASSIGNED_CONTEXT ( ( #2, #1, #167 ) ) REPRESENTATION_CONTEXT ( 'NONE', 'WORKASPACE' ) );
#133 = DIRECTION ( 'NONE',  ( -1.000000000000000000, -0.0000000000000000000, -0.0000000000000000000 ) ) ;
#134 = CARTESIAN_POINT ( 'NONE',  ( 79.02659812842320264, 0.0000000000000000000, 2.350000000000009415 ) ) ;
#135 = UNCERTAINTY_MEASURE_WITH_UNIT (LENGTH_MEASURE( 1.000000000000000082E-05 ), #2, 'distance_accuracy_value', 'NONE');
#136 = APPLICATION_CONTEXT ( 'automotive_design' ) ;
#137 = EDGE_CURVE ( 'NONE', #22, #22, #183, .T. ) ;
#138 = COLOUR_RGB ( '',0.7921568627450980005, 0.8196078431372548767, 0.9333333333333333481 ) ;
#139 = DIRECTION ( 'NONE',  ( 0.0000000000000000000, 0.0000000000000000000, 1.000000000000000000 ) ) ;
#140 = UNCERTAINTY_MEASURE_WITH_UNIT (LENGTH_MEASURE( 1.000000000000000082E-05 ), #154, 'distance_accuracy_value', 'NONE');
#141 = DIRECTION ( 'NONE',  ( 1.000000000000000000, 0.0000000000000000000, 0.0000000000000000000 ) ) ;
#142 = AXIS2_PLACEMENT_3D ( 'NONE', #14, #173, #192 ) ;
#143 = COLOUR_RGB ( '',0.7921568627450980005, 0.8196078431372548767, 0.9333333333333333481 ) ;
#144 = FACE_OUTER_BOUND ( 'NONE', #20, .T. ) ;
#145 = AXIS2_PLACEMENT_3D ( 'NONE', #25, #180, #67 ) ;
#146 = CIRCLE ( 'NONE', #91, 2.350000000000004974 ) ;
#147 = VERTEX_POINT ( 'NONE', #124 ) ;
#148 = EDGE_CURVE ( 'NONE', #32, #32, #188, .T. ) ;
#149 = COLOUR_RGB ( '',1.000000000000000000, 1.000000000000000000, 0.0000000000000000000 ) ;
#150 = EDGE_LOOP ( 'NONE', ( #54 ) ) ;
#151 = PRODUCT ( '03-1653', '03-1653', '', ( #51 ) ) ;
#152 =( GEOMETRIC_REPRESENTATION_CONTEXT ( 3 ) GLOBAL_UNCERTAINTY_ASSIGNED_CONTEXT ( ( #140 ) ) GLOBAL_UNIT_ASSIGNED_CONTEXT ( ( #154, #176, #155 ) ) REPRESENTATION_CONTEXT ( 'NONE', 'WORKASPACE' ) );
#153 = MANIFOLD_SOLID_BREP ( 'ºÐÇÒ2[2]', #29 ) ;
#154 =( LENGTH_UNIT ( ) NAMED_UNIT ( * ) SI_UNIT ( .MILLI., .METRE. ) );
#155 =( NAMED_UNIT ( * ) SI_UNIT ( $, .STERADIAN. ) SOLID_ANGLE_UNIT ( ) );
#156 = DIRECTION ( 'NONE',  ( 1.000000000000000000, 0.0000000000000000000, 0.0000000000000000000 ) ) ;
#157 = AXIS2_PLACEMENT_3D ( 'NONE', #127, #141, #114 ) ;
#158 =( NAMED_UNIT ( * ) PLANE_ANGLE_UNIT ( ) SI_UNIT ( $, .RADIAN. ) );
#159 = ORIENTED_EDGE ( 'NONE', *, *, #122, .T. ) ;
#160 = EDGE_LOOP ( 'NONE', ( #59 ) ) ;
#161 = DIRECTION ( 'NONE',  ( 1.000000000000000000, 0.0000000000000000000, 0.0000000000000000000 ) ) ;
#162 = CONICAL_SURFACE ( 'NONE', #107, 1.879999999999985905, 0.7853981633974381760 ) ;
#163 = EDGE_CURVE ( 'NONE', #147, #147, #212, .T. ) ;
#164 = AXIS2_PLACEMENT_3D ( 'NONE', #43, #81, #70 ) ;
#165 = PRESENTATION_LAYER_ASSIGNMENT (  '', '', ( #112 ) ) ;
#166 = COLOUR_RGB ( '',1.000000000000000000, 1.000000000000000000, 0.0000000000000000000 ) ;
#167 =( NAMED_UNIT ( * ) SI_UNIT ( $, .STERADIAN. ) SOLID_ANGLE_UNIT ( ) );
#168 = APPLICATION_CONTEXT ( 'automotive_design' ) ;
#169 = APPLICATION_PROTOCOL_DEFINITION ( 'draft international standard', 'automotive_design', 1998, #136 ) ;
#170 = FACE_OUTER_BOUND ( 'NONE', #74, .T. ) ;
#171 = PLANE ( 'NONE',  #96 ) ;
#172 = PRESENTATION_LAYER_ASSIGNMENT (  '', '', ( #198 ) ) ;
#173 = DIRECTION ( 'NONE',  ( 1.000000000000000000, 0.0000000000000000000, 0.0000000000000000000 ) ) ;
#174 = MECHANICAL_DESIGN_GEOMETRIC_PRESENTATION_REPRESENTATION (  '', ( #198 ), #211 ) ;
#175 = PRODUCT_DEFINITION_SHAPE ( 'NONE', 'NONE',  #117 ) ;
#176 =( NAMED_UNIT ( * ) PLANE_ANGLE_UNIT ( ) SI_UNIT ( $, .RADIAN. ) );
#177 = CARTESIAN_POINT ( 'NONE',  ( 0.0000000000000000000, 0.0000000000000000000, 0.0000000000000000000 ) ) ;
#178 = PRESENTATION_STYLE_ASSIGNMENT (( #4 ) ) ;
#179 =( LENGTH_UNIT ( ) NAMED_UNIT ( * ) SI_UNIT ( .MILLI., .METRE. ) );
#180 = DIRECTION ( 'NONE',  ( -1.000000000000000000, -0.0000000000000000000, -0.0000000000000000000 ) ) ;
#181 = ADVANCED_FACE ( 'NONE', ( #46 ), #15, .F. ) ;
#182 =( LENGTH_UNIT ( ) NAMED_UNIT ( * ) SI_UNIT ( .MILLI., .METRE. ) );
#183 = CIRCLE ( 'NONE', #69, 2.350000000000009415 ) ;
#184 = ADVANCED_FACE ( 'NONE', ( #52 ), #171, .T. ) ;
#185 =( GEOMETRIC_REPRESENTATION_CONTEXT ( 3 ) GLOBAL_UNCERTAINTY_ASSIGNED_CONTEXT ( ( #63 ) ) GLOBAL_UNIT_ASSIGNED_CONTEXT ( ( #182, #90, #87 ) ) REPRESENTATION_CONTEXT ( 'NONE', 'WORKASPACE' ) );
#186 = CYLINDRICAL_SURFACE ( 'NONE', #145, 2.350000000000004974 ) ;
#187 = CARTESIAN_POINT ( 'NONE',  ( -1.438959988998140407E-16, 0.0000000000000000000, 0.0000000000000000000 ) ) ;
#188 = CIRCLE ( 'NONE', #157, 2.350000000000004974 ) ;
#189 = FILL_AREA_STYLE ('',( #7 ) ) ;
#190 = STYLED_ITEM ( 'NONE', ( #178 ), #130 ) ;
#191 = DIRECTION ( 'NONE',  ( -1.000000000000000000, -0.0000000000000000000, -0.0000000000000000000 ) ) ;
#192 = DIRECTION ( 'NONE',  ( 0.0000000000000000000, 0.0000000000000000000, -1.000000000000000000 ) ) ;
#193 = ADVANCED_FACE ( 'NONE', ( #71, #170 ), #195, .T. ) ;
#194 = SURFACE_STYLE_FILL_AREA ( #207 ) ;
#195 = CYLINDRICAL_SURFACE ( 'NONE', #120, 2.350000000000004974 ) ;
#196 = ADVANCED_FACE ( 'NONE', ( #205, #38 ), #162, .T. ) ;
#197 = ADVANCED_BREP_SHAPE_REPRESENTATION ( '03-1653', ( #8, #153, #102 ), #152 ) ;
#198 = STYLED_ITEM ( 'NONE', ( #131 ), #39 ) ;
#199 = SURFACE_STYLE_FILL_AREA ( #189 ) ;
#200 = FILL_AREA_STYLE_COLOUR ( '', #138 ) ;
#201 = CARTESIAN_POINT ( 'NONE',  ( 0.0000000000000000000, 0.0000000000000000000, 0.0000000000000000000 ) ) ;
#202 = MECHANICAL_DESIGN_GEOMETRIC_PRESENTATION_REPRESENTATION (  '', ( #112 ), #185 ) ;
#203 = SURFACE_STYLE_USAGE ( .BOTH. , #104 ) ;
#204 =( GEOMETRIC_REPRESENTATION_CONTEXT ( 3 ) GLOBAL_UNCERTAINTY_ASSIGNED_CONTEXT ( ( #121 ) ) GLOBAL_UNIT_ASSIGNED_CONTEXT ( ( #179, #158, #85 ) ) REPRESENTATION_CONTEXT ( 'NONE', 'WORKASPACE' ) );
#205 = FACE_OUTER_BOUND ( 'NONE', #160, .T. ) ;
#206 = CARTESIAN_POINT ( 'NONE',  ( 33.00000000000000000, 0.0000000000000000000, -2.350000000000004974 ) ) ;
#207 = FILL_AREA_STYLE ('',( #200 ) ) ;
#208 = CARTESIAN_POINT ( 'NONE',  ( -1.438959988998140407E-16, 0.0000000000000000000, -1.879999999999985905 ) ) ;
#209 = STYLED_ITEM ( 'NONE', ( #92 ), #153 ) ;
#210 = SURFACE_STYLE_FILL_AREA ( #45 ) ;
#211 =( GEOMETRIC_REPRESENTATION_CONTEXT ( 3 ) GLOBAL_UNCERTAINTY_ASSIGNED_CONTEXT ( ( #77 ) ) GLOBAL_UNIT_ASSIGNED_CONTEXT ( ( #78, #76, #72 ) ) REPRESENTATION_CONTEXT ( 'NONE', 'WORKASPACE' ) );
#212 = CIRCLE ( 'NONE', #213, 2.350000000000004974 ) ;
#213 = AXIS2_PLACEMENT_3D ( 'NONE', #37, #161, #58 ) ;
ENDSEC;
END-ISO-10303-21;
