ISO-10303-21;
HEADER;
FILE_DESCRIPTION (( 'STEP AP214' ),
    '1' );
FILE_NAME ('03-1654.STEP',
    '2021-10-01T05:29:09',
    ( 'USER' ),
    ( '' ),
    'SwSTEP 2.0',
    'SolidWorks 2018',
    '' );
FILE_SCHEMA (( 'AUTOMOTIVE_DESIGN' ));
ENDSEC;

DATA;
#1 = FACE_OUTER_BOUND ( 'NONE', #179, .T. ) ;
#2 = DIRECTION ( 'NONE',  ( 0.0000000000000000000, 0.0000000000000000000, 1.000000000000000000 ) ) ;
#3 = PRESENTATION_LAYER_ASSIGNMENT (  '', '', ( #85 ) ) ;
#4 = EDGE_LOOP ( 'NONE', ( #100 ) ) ;
#5 =( GEOMETRIC_REPRESENTATION_CONTEXT ( 3 ) GLOBAL_UNCERTAINTY_ASSIGNED_CONTEXT ( ( #101 ) ) GLOBAL_UNIT_ASSIGNED_CONTEXT ( ( #106, #41, #22 ) ) REPRESENTATION_CONTEXT ( 'NONE', 'WORKASPACE' ) );
#6 = APPLICATION_CONTEXT ( 'automotive_design' ) ;
#7 = STYLED_ITEM ( 'NONE', ( #107 ), #38 ) ;
#8 = SURFACE_STYLE_FILL_AREA ( #136 ) ;
#9 = UNCERTAINTY_MEASURE_WITH_UNIT (LENGTH_MEASURE( 1.000000000000000082E-05 ), #203, 'distance_accuracy_value', 'NONE');
#10 = CARTESIAN_POINT ( 'NONE',  ( 0.4800000000000024247, 0.0000000000000000000, 0.0000000000000000000 ) ) ;
#11 = PRODUCT_DEFINITION_CONTEXT ( 'detailed design', #6, 'design' ) ;
#12 = ORIENTED_EDGE ( 'NONE', *, *, #167, .F. ) ;
#13 = CARTESIAN_POINT ( 'NONE',  ( 33.99999999999999289, 0.0000000000000000000, 0.0000000000000000000 ) ) ;
#14 = STYLED_ITEM ( 'NONE', ( #158 ), #211 ) ;
#15 = ORIENTED_EDGE ( 'NONE', *, *, #194, .F. ) ;
#16 = EDGE_LOOP ( 'NONE', ( #140 ) ) ;
#17 = ADVANCED_FACE ( 'NONE', ( #67 ), #141, .T. ) ;
#18 = PRESENTATION_LAYER_ASSIGNMENT (  '', '', ( #14 ) ) ;
#19 =( LENGTH_UNIT ( ) NAMED_UNIT ( * ) SI_UNIT ( .MILLI., .METRE. ) );
#20 = FACE_OUTER_BOUND ( 'NONE', #27, .T. ) ;
#21 = COLOUR_RGB ( '',0.7921568627450980005, 0.8196078431372548767, 0.9333333333333333481 ) ;
#22 =( NAMED_UNIT ( * ) SI_UNIT ( $, .STERADIAN. ) SOLID_ANGLE_UNIT ( ) );
#23 =( NAMED_UNIT ( * ) SI_UNIT ( $, .STERADIAN. ) SOLID_ANGLE_UNIT ( ) );
#24 = FILL_AREA_STYLE_COLOUR ( '', #122 ) ;
#25 = FILL_AREA_STYLE_COLOUR ( '', #51 ) ;
#26 = PRESENTATION_STYLE_ASSIGNMENT (( #109 ) ) ;
#27 = EDGE_LOOP ( 'NONE', ( #89 ) ) ;
#28 = DIRECTION ( 'NONE',  ( 0.0000000000000000000, 0.0000000000000000000, -1.000000000000000000 ) ) ;
#29 = CIRCLE ( 'NONE', #50, 2.400000000000005240 ) ;
#30 = PRESENTATION_LAYER_ASSIGNMENT (  '', '', ( #43 ) ) ;
#31 = AXIS2_PLACEMENT_3D ( 'NONE', #124, #108, #2 ) ;
#32 = CARTESIAN_POINT ( 'NONE',  ( -1.469576158976823799E-16, 0.0000000000000000000, 0.0000000000000000000 ) ) ;
#33 = CIRCLE ( 'NONE', #127, 2.400000000000005240 ) ;
#34 = CARTESIAN_POINT ( 'NONE',  ( 0.0000000000000000000, 0.0000000000000000000, 0.0000000000000000000 ) ) ;
#35 = SURFACE_SIDE_STYLE ('',( #212 ) ) ;
#36 = FILL_AREA_STYLE_COLOUR ( '', #39 ) ;
#37 = SURFACE_SIDE_STYLE ('',( #61 ) ) ;
#38 = ADVANCED_FACE ( 'NONE', ( #151 ), #197, .T. ) ;
#39 = COLOUR_RGB ( '',0.7921568627450980005, 0.8196078431372548767, 0.9333333333333333481 ) ;
#40 = DIRECTION ( 'NONE',  ( -1.000000000000000000, -0.0000000000000000000, -0.0000000000000000000 ) ) ;
#41 =( NAMED_UNIT ( * ) PLANE_ANGLE_UNIT ( ) SI_UNIT ( $, .RADIAN. ) );
#42 = AXIS2_PLACEMENT_3D ( 'NONE', #34, #81, #70 ) ;
#43 = STYLED_ITEM ( 'NONE', ( #26 ), #114 ) ;
#44 = APPLICATION_PROTOCOL_DEFINITION ( 'draft international standard', 'automotive_design', 1998, #126 ) ;
#45 = SURFACE_SIDE_STYLE ('',( #8 ) ) ;
#46 = DIRECTION ( 'NONE',  ( 0.0000000000000000000, 0.0000000000000000000, -1.000000000000000000 ) ) ;
#47 = AXIS2_PLACEMENT_3D ( 'NONE', #164, #40, #149 ) ;
#48 = PLANE ( 'NONE',  #68 ) ;
#49 = COLOUR_RGB ( '',1.000000000000000000, 1.000000000000000000, 0.0000000000000000000 ) ;
#50 = AXIS2_PLACEMENT_3D ( 'NONE', #13, #171, #66 ) ;
#51 = COLOUR_RGB ( '',1.000000000000000000, 1.000000000000000000, 0.0000000000000000000 ) ;
#52 = DIRECTION ( 'NONE',  ( 0.0000000000000000000, 0.0000000000000000000, -1.000000000000000000 ) ) ;
#53 = SURFACE_SIDE_STYLE ('',( #82 ) ) ;
#54 =( GEOMETRIC_REPRESENTATION_CONTEXT ( 3 ) GLOBAL_UNCERTAINTY_ASSIGNED_CONTEXT ( ( #185 ) ) GLOBAL_UNIT_ASSIGNED_CONTEXT ( ( #210, #99, #196 ) ) REPRESENTATION_CONTEXT ( 'NONE', 'WORKASPACE' ) );
#55 = MECHANICAL_DESIGN_GEOMETRIC_PRESENTATION_REPRESENTATION (  '', ( #193 ), #5 ) ;
#56 = UNCERTAINTY_MEASURE_WITH_UNIT (LENGTH_MEASURE( 1.000000000000000082E-05 ), #186, 'distance_accuracy_value', 'NONE');
#57 = SURFACE_STYLE_FILL_AREA ( #74 ) ;
#58 = FILL_AREA_STYLE ('',( #73 ) ) ;
#59 = SURFACE_STYLE_USAGE ( .BOTH. , #152 ) ;
#60 = ORIENTED_EDGE ( 'NONE', *, *, #182, .F. ) ;
#61 = SURFACE_STYLE_FILL_AREA ( #58 ) ;
#62 =( NAMED_UNIT ( * ) SI_UNIT ( $, .STERADIAN. ) SOLID_ANGLE_UNIT ( ) );
#63 = EDGE_CURVE ( 'NONE', #83, #83, #71, .T. ) ;
#64 = FILL_AREA_STYLE ('',( #36 ) ) ;
#65 = EDGE_LOOP ( 'NONE', ( #166 ) ) ;
#66 = DIRECTION ( 'NONE',  ( 0.0000000000000000000, 0.0000000000000000000, -1.000000000000000000 ) ) ;
#67 = FACE_OUTER_BOUND ( 'NONE', #4, .T. ) ;
#68 = AXIS2_PLACEMENT_3D ( 'NONE', #161, #156, #46 ) ;
#69 = MECHANICAL_DESIGN_GEOMETRIC_PRESENTATION_REPRESENTATION (  '', ( #43 ), #96 ) ;
#70 = DIRECTION ( 'NONE',  ( 0.0000000000000000000, 0.0000000000000000000, 1.000000000000000000 ) ) ;
#71 = CIRCLE ( 'NONE', #145, 2.400000000000005240 ) ;
#72 = FACE_OUTER_BOUND ( 'NONE', #133, .T. ) ;
#73 = FILL_AREA_STYLE_COLOUR ( '', #21 ) ;
#74 = FILL_AREA_STYLE ('',( #25 ) ) ;
#75 = AXIS2_PLACEMENT_3D ( 'NONE', #143, #176, #28 ) ;
#76 = DIRECTION ( 'NONE',  ( 0.0000000000000000000, 0.0000000000000000000, 1.000000000000000000 ) ) ;
#77 =( LENGTH_UNIT ( ) NAMED_UNIT ( * ) SI_UNIT ( .MILLI., .METRE. ) );
#78 = PRESENTATION_STYLE_ASSIGNMENT (( #59 ) ) ;
#79 = CIRCLE ( 'NONE', #47, 2.400000000000010125 ) ;
#80 =( GEOMETRIC_REPRESENTATION_CONTEXT ( 3 ) GLOBAL_UNCERTAINTY_ASSIGNED_CONTEXT ( ( #131 ) ) GLOBAL_UNIT_ASSIGNED_CONTEXT ( ( #19, #103, #213 ) ) REPRESENTATION_CONTEXT ( 'NONE', 'WORKASPACE' ) );
#81 = DIRECTION ( 'NONE',  ( -1.000000000000000000, -0.0000000000000000000, -0.0000000000000000000 ) ) ;
#82 = SURFACE_STYLE_FILL_AREA ( #64 ) ;
#83 = VERTEX_POINT ( 'NONE', #87 ) ;
#84 = CARTESIAN_POINT ( 'NONE',  ( 0.0000000000000000000, 0.0000000000000000000, 0.0000000000000000000 ) ) ;
#85 = STYLED_ITEM ( 'NONE', ( #160 ), #173 ) ;
#86 = ADVANCED_FACE ( 'NONE', ( #113, #142 ), #157, .T. ) ;
#87 = CARTESIAN_POINT ( 'NONE',  ( 0.4800000000000024247, 0.0000000000000000000, -2.400000000000005240 ) ) ;
#88 = DIRECTION ( 'NONE',  ( -1.000000000000000000, -0.0000000000000000000, -0.0000000000000000000 ) ) ;
#89 = ORIENTED_EDGE ( 'NONE', *, *, #63, .T. ) ;
#90 = PRODUCT_CONTEXT ( 'NONE', #126, 'mechanical' ) ;
#91 = MECHANICAL_DESIGN_GEOMETRIC_PRESENTATION_REPRESENTATION (  '', ( #14 ), #80 ) ;
#92 = DIRECTION ( 'NONE',  ( -1.000000000000000000, -0.0000000000000000000, -0.0000000000000000000 ) ) ;
#93 = SURFACE_STYLE_USAGE ( .BOTH. , #53 ) ;
#94 = VERTEX_POINT ( 'NONE', #123 ) ;
#95 = ORIENTED_EDGE ( 'NONE', *, *, #194, .T. ) ;
#96 =( GEOMETRIC_REPRESENTATION_CONTEXT ( 3 ) GLOBAL_UNCERTAINTY_ASSIGNED_CONTEXT ( ( #9 ) ) GLOBAL_UNIT_ASSIGNED_CONTEXT ( ( #203, #168, #62 ) ) REPRESENTATION_CONTEXT ( 'NONE', 'WORKASPACE' ) );
#97 = CLOSED_SHELL ( 'NONE', ( #148, #184, #38 ) ) ;
#98 =( GEOMETRIC_REPRESENTATION_CONTEXT ( 3 ) GLOBAL_UNCERTAINTY_ASSIGNED_CONTEXT ( ( #56 ) ) GLOBAL_UNIT_ASSIGNED_CONTEXT ( ( #186, #200, #102 ) ) REPRESENTATION_CONTEXT ( 'NONE', 'WORKASPACE' ) );
#99 =( NAMED_UNIT ( * ) PLANE_ANGLE_UNIT ( ) SI_UNIT ( $, .RADIAN. ) );
#100 = ORIENTED_EDGE ( 'NONE', *, *, #167, .T. ) ;
#101 = UNCERTAINTY_MEASURE_WITH_UNIT (LENGTH_MEASURE( 1.000000000000000082E-05 ), #106, 'distance_accuracy_value', 'NONE');
#102 =( NAMED_UNIT ( * ) SI_UNIT ( $, .STERADIAN. ) SOLID_ANGLE_UNIT ( ) );
#103 =( NAMED_UNIT ( * ) PLANE_ANGLE_UNIT ( ) SI_UNIT ( $, .RADIAN. ) );
#104 = CYLINDRICAL_SURFACE ( 'NONE', #31, 2.400000000000005240 ) ;
#105 = EDGE_LOOP ( 'NONE', ( #60 ) ) ;
#106 =( LENGTH_UNIT ( ) NAMED_UNIT ( * ) SI_UNIT ( .MILLI., .METRE. ) );
#107 = PRESENTATION_STYLE_ASSIGNMENT (( #195 ) ) ;
#108 = DIRECTION ( 'NONE',  ( -1.000000000000000000, -0.0000000000000000000, -0.0000000000000000000 ) ) ;
#109 = SURFACE_STYLE_USAGE ( .BOTH. , #45 ) ;
#110 = APPLICATION_PROTOCOL_DEFINITION ( 'draft international standard', 'automotive_design', 1998, #6 ) ;
#111 =( GEOMETRIC_REPRESENTATION_CONTEXT ( 3 ) GLOBAL_UNCERTAINTY_ASSIGNED_CONTEXT ( ( #125 ) ) GLOBAL_UNIT_ASSIGNED_CONTEXT ( ( #77, #190, #23 ) ) REPRESENTATION_CONTEXT ( 'NONE', 'WORKASPACE' ) );
#112 = PRODUCT_DEFINITION_SHAPE ( 'NONE', 'NONE',  #146 ) ;
#113 = FACE_OUTER_BOUND ( 'NONE', #174, .T. ) ;
#114 = ADVANCED_BREP_SHAPE_REPRESENTATION ( '03-1654', ( #173, #211, #134 ), #98 ) ;
#115 = VERTEX_POINT ( 'NONE', #201 ) ;
#116 = DIRECTION ( 'NONE',  ( 1.000000000000000000, 0.0000000000000000000, 0.0000000000000000000 ) ) ;
#117 = FACE_OUTER_BOUND ( 'NONE', #16, .T. ) ;
#118 = VERTEX_POINT ( 'NONE', #181 ) ;
#119 = SURFACE_STYLE_USAGE ( .BOTH. , #37 ) ;
#120 = ADVANCED_FACE ( 'NONE', ( #20, #72 ), #202, .T. ) ;
#121 = CIRCLE ( 'NONE', #207, 1.919999999999991047 ) ;
#122 = COLOUR_RGB ( '',0.7921568627450980005, 0.8196078431372548767, 0.9333333333333333481 ) ;
#123 = CARTESIAN_POINT ( 'NONE',  ( 33.99999999999999289, 0.0000000000000000000, -2.400000000000005240 ) ) ;
#124 = CARTESIAN_POINT ( 'NONE',  ( 0.0000000000000000000, 0.0000000000000000000, 0.0000000000000000000 ) ) ;
#125 = UNCERTAINTY_MEASURE_WITH_UNIT (LENGTH_MEASURE( 1.000000000000000082E-05 ), #77, 'distance_accuracy_value', 'NONE');
#126 = APPLICATION_CONTEXT ( 'automotive_design' ) ;
#127 = AXIS2_PLACEMENT_3D ( 'NONE', #154, #170, #178 ) ;
#128 = DIRECTION ( 'NONE',  ( 1.000000000000000000, 0.0000000000000000000, 0.0000000000000000000 ) ) ;
#129 = PLANE ( 'NONE',  #75 ) ;
#130 = FILL_AREA_STYLE ('',( #191 ) ) ;
#131 = UNCERTAINTY_MEASURE_WITH_UNIT (LENGTH_MEASURE( 1.000000000000000082E-05 ), #19, 'distance_accuracy_value', 'NONE');
#132 = EDGE_LOOP ( 'NONE', ( #137 ) ) ;
#133 = EDGE_LOOP ( 'NONE', ( #12 ) ) ;
#134 = AXIS2_PLACEMENT_3D ( 'NONE', #84, #76, #204 ) ;
#135 = PRODUCT_RELATED_PRODUCT_CATEGORY ( 'part', '', ( #180 ) ) ;
#136 = FILL_AREA_STYLE ('',( #24 ) ) ;
#137 = ORIENTED_EDGE ( 'NONE', *, *, #159, .T. ) ;
#138 = VERTEX_POINT ( 'NONE', #144 ) ;
#139 = AXIS2_PLACEMENT_3D ( 'NONE', #32, #128, #52 ) ;
#140 = ORIENTED_EDGE ( 'NONE', *, *, #182, .T. ) ;
#141 = PLANE ( 'NONE',  #189 ) ;
#142 = FACE_BOUND ( 'NONE', #105, .T. ) ;
#143 = CARTESIAN_POINT ( 'NONE',  ( 33.99999999999999289, 0.0000000000000000000, 0.0000000000000000000 ) ) ;
#144 = CARTESIAN_POINT ( 'NONE',  ( -1.469576158976823799E-16, 0.0000000000000000000, -1.919999999999991047 ) ) ;
#145 = AXIS2_PLACEMENT_3D ( 'NONE', #10, #116, #209 ) ;
#146 = PRODUCT_DEFINITION ( 'UNKNOWN', '', #169, #11 ) ;
#147 = SHAPE_DEFINITION_REPRESENTATION ( #112, #114 ) ;
#148 = ADVANCED_FACE ( 'NONE', ( #192 ), #129, .F. ) ;
#149 = DIRECTION ( 'NONE',  ( 0.0000000000000000000, 0.0000000000000000000, 1.000000000000000000 ) ) ;
#150 = FACE_OUTER_BOUND ( 'NONE', #132, .T. ) ;
#151 = FACE_OUTER_BOUND ( 'NONE', #187, .T. ) ;
#152 = SURFACE_SIDE_STYLE ('',( #57 ) ) ;
#153 = CLOSED_SHELL ( 'NONE', ( #120, #163, #86, #17 ) ) ;
#154 = CARTESIAN_POINT ( 'NONE',  ( 33.99999999999999289, 0.0000000000000000000, 0.0000000000000000000 ) ) ;
#155 = PRESENTATION_LAYER_ASSIGNMENT (  '', '', ( #7 ) ) ;
#156 = DIRECTION ( 'NONE',  ( 1.000000000000000000, 0.0000000000000000000, 0.0000000000000000000 ) ) ;
#157 = CONICAL_SURFACE ( 'NONE', #139, 1.919999999999991047, 0.7853981633974604915 ) ;
#158 = PRESENTATION_STYLE_ASSIGNMENT (( #119 ) ) ;
#159 = EDGE_CURVE ( 'NONE', #115, #115, #29, .T. ) ;
#160 = PRESENTATION_STYLE_ASSIGNMENT (( #93 ) ) ;
#161 = CARTESIAN_POINT ( 'NONE',  ( -1.469576158976823799E-16, 2.400000000000000355, 0.0000000000000000000 ) ) ;
#162 = CARTESIAN_POINT ( 'NONE',  ( -914.0000000000000000, 0.0000000000000000000, 0.0000000000000000000 ) ) ;
#163 = ADVANCED_FACE ( 'NONE', ( #117 ), #48, .F. ) ;
#164 = CARTESIAN_POINT ( 'NONE',  ( 85.00588745030454163, 0.0000000000000000000, 0.0000000000000000000 ) ) ;
#165 = DIRECTION ( 'NONE',  ( 0.0000000000000000000, 0.0000000000000000000, -1.000000000000000000 ) ) ;
#166 = ORIENTED_EDGE ( 'NONE', *, *, #159, .F. ) ;
#167 = EDGE_CURVE ( 'NONE', #94, #94, #33, .T. ) ;
#168 =( NAMED_UNIT ( * ) PLANE_ANGLE_UNIT ( ) SI_UNIT ( $, .RADIAN. ) );
#169 = PRODUCT_DEFINITION_FORMATION_WITH_SPECIFIED_SOURCE ( 'ANY', '', #180, .NOT_KNOWN. ) ;
#170 = DIRECTION ( 'NONE',  ( 1.000000000000000000, 0.0000000000000000000, 0.0000000000000000000 ) ) ;
#171 = DIRECTION ( 'NONE',  ( 1.000000000000000000, 0.0000000000000000000, 0.0000000000000000000 ) ) ;
#172 = ORIENTED_EDGE ( 'NONE', *, *, #63, .F. ) ;
#173 = MANIFOLD_SOLID_BREP ( 'ºÐÇÒ2[1]', #153 ) ;
#174 = EDGE_LOOP ( 'NONE', ( #172 ) ) ;
#175 = MECHANICAL_DESIGN_GEOMETRIC_PRESENTATION_REPRESENTATION (  '', ( #7 ), #54 ) ;
#176 = DIRECTION ( 'NONE',  ( 1.000000000000000000, 0.0000000000000000000, 0.0000000000000000000 ) ) ;
#177 = DIRECTION ( 'NONE',  ( 0.0000000000000000000, 0.0000000000000000000, 1.000000000000000000 ) ) ;
#178 = DIRECTION ( 'NONE',  ( 0.0000000000000000000, 0.0000000000000000000, -1.000000000000000000 ) ) ;
#179 = EDGE_LOOP ( 'NONE', ( #95 ) ) ;
#180 = PRODUCT ( '03-1654', '03-1654', '', ( #90 ) ) ;
#181 = CARTESIAN_POINT ( 'NONE',  ( 85.00588745030454163, 0.0000000000000000000, 2.400000000000010125 ) ) ;
#182 = EDGE_CURVE ( 'NONE', #138, #138, #121, .T. ) ;
#183 = AXIS2_PLACEMENT_3D ( 'NONE', #162, #92, #177 ) ;
#184 = ADVANCED_FACE ( 'NONE', ( #150, #1 ), #104, .T. ) ;
#185 = UNCERTAINTY_MEASURE_WITH_UNIT (LENGTH_MEASURE( 1.000000000000000082E-05 ), #210, 'distance_accuracy_value', 'NONE');
#186 =( LENGTH_UNIT ( ) NAMED_UNIT ( * ) SI_UNIT ( .MILLI., .METRE. ) );
#187 = EDGE_LOOP ( 'NONE', ( #15 ) ) ;
#188 = CARTESIAN_POINT ( 'NONE',  ( -1.469576158976823799E-16, 0.0000000000000000000, 0.0000000000000000000 ) ) ;
#189 = AXIS2_PLACEMENT_3D ( 'NONE', #198, #205, #206 ) ;
#190 =( NAMED_UNIT ( * ) PLANE_ANGLE_UNIT ( ) SI_UNIT ( $, .RADIAN. ) );
#191 = FILL_AREA_STYLE_COLOUR ( '', #49 ) ;
#192 = FACE_OUTER_BOUND ( 'NONE', #65, .T. ) ;
#193 = STYLED_ITEM ( 'NONE', ( #78 ), #184 ) ;
#194 = EDGE_CURVE ( 'NONE', #118, #118, #79, .T. ) ;
#195 = SURFACE_STYLE_USAGE ( .BOTH. , #35 ) ;
#196 =( NAMED_UNIT ( * ) SI_UNIT ( $, .STERADIAN. ) SOLID_ANGLE_UNIT ( ) );
#197 = CONICAL_SURFACE ( 'NONE', #183, 2414.213562373058721, 1.178097245096167089 ) ;
#198 = CARTESIAN_POINT ( 'NONE',  ( 33.99999999999999289, 0.0000000000000000000, 0.0000000000000000000 ) ) ;
#199 = MECHANICAL_DESIGN_GEOMETRIC_PRESENTATION_REPRESENTATION (  '', ( #85 ), #111 ) ;
#200 =( NAMED_UNIT ( * ) PLANE_ANGLE_UNIT ( ) SI_UNIT ( $, .RADIAN. ) );
#201 = CARTESIAN_POINT ( 'NONE',  ( 33.99999999999999289, 0.0000000000000000000, -2.400000000000005240 ) ) ;
#202 = CYLINDRICAL_SURFACE ( 'NONE', #42, 2.400000000000005240 ) ;
#203 =( LENGTH_UNIT ( ) NAMED_UNIT ( * ) SI_UNIT ( .MILLI., .METRE. ) );
#204 = DIRECTION ( 'NONE',  ( 1.000000000000000000, 0.0000000000000000000, 0.0000000000000000000 ) ) ;
#205 = DIRECTION ( 'NONE',  ( 1.000000000000000000, 0.0000000000000000000, 0.0000000000000000000 ) ) ;
#206 = DIRECTION ( 'NONE',  ( 0.0000000000000000000, 0.0000000000000000000, -1.000000000000000000 ) ) ;
#207 = AXIS2_PLACEMENT_3D ( 'NONE', #188, #88, #165 ) ;
#208 = PRESENTATION_LAYER_ASSIGNMENT (  '', '', ( #193 ) ) ;
#209 = DIRECTION ( 'NONE',  ( 0.0000000000000000000, 0.0000000000000000000, -1.000000000000000000 ) ) ;
#210 =( LENGTH_UNIT ( ) NAMED_UNIT ( * ) SI_UNIT ( .MILLI., .METRE. ) );
#211 = MANIFOLD_SOLID_BREP ( 'ºÐÇÒ2[2]', #97 ) ;
#212 = SURFACE_STYLE_FILL_AREA ( #130 ) ;
#213 =( NAMED_UNIT ( * ) SI_UNIT ( $, .STERADIAN. ) SOLID_ANGLE_UNIT ( ) );
ENDSEC;
END-ISO-10303-21;
