ISO-10303-21;
HEADER;
FILE_DESCRIPTION (( 'STEP AP214' ),
    '1' );
FILE_NAME ('03-1656.STEP',
    '2021-10-01T05:29:46',
    ( 'USER' ),
    ( '' ),
    'SwSTEP 2.0',
    'SolidWorks 2018',
    '' );
FILE_SCHEMA (( 'AUTOMOTIVE_DESIGN' ));
ENDSEC;

DATA;
#1 = AXIS2_PLACEMENT_3D ( 'NONE', #14, #126, #144 ) ;
#2 = SURFACE_STYLE_FILL_AREA ( #142 ) ;
#3 = SURFACE_SIDE_STYLE ('',( #29 ) ) ;
#4 = EDGE_LOOP ( 'NONE', ( #24 ) ) ;
#5 = EDGE_CURVE ( 'NONE', #43, #43, #100, .T. ) ;
#6 = DIRECTION ( 'NONE',  ( 0.0000000000000000000, 0.0000000000000000000, 1.000000000000000000 ) ) ;
#7 = PLANE ( 'NONE',  #48 ) ;
#8 =( LENGTH_UNIT ( ) NAMED_UNIT ( * ) SI_UNIT ( .MILLI., .METRE. ) );
#9 = EDGE_LOOP ( 'NONE', ( #107 ) ) ;
#10 = ORIENTED_EDGE ( 'NONE', *, *, #5, .T. ) ;
#11 = FILL_AREA_STYLE ('',( #25 ) ) ;
#12 = ORIENTED_EDGE ( 'NONE', *, *, #206, .F. ) ;
#13 = DIRECTION ( 'NONE',  ( 0.0000000000000000000, 0.0000000000000000000, 1.000000000000000000 ) ) ;
#14 = CARTESIAN_POINT ( 'NONE',  ( 0.0000000000000000000, 0.0000000000000000000, 0.0000000000000000000 ) ) ;
#15 = ORIENTED_EDGE ( 'NONE', *, *, #160, .T. ) ;
#16 =( LENGTH_UNIT ( ) NAMED_UNIT ( * ) SI_UNIT ( .MILLI., .METRE. ) );
#17 = SURFACE_STYLE_FILL_AREA ( #11 ) ;
#18 = ORIENTED_EDGE ( 'NONE', *, *, #160, .F. ) ;
#19 = ORIENTED_EDGE ( 'NONE', *, *, #180, .F. ) ;
#20 = ORIENTED_EDGE ( 'NONE', *, *, #193, .T. ) ;
#21 = AXIS2_PLACEMENT_3D ( 'NONE', #22, #125, #6 ) ;
#22 = CARTESIAN_POINT ( 'NONE',  ( 84.96446609406724804, 0.0000000000000000000, 0.0000000000000000000 ) ) ;
#23 = DIRECTION ( 'NONE',  ( 0.0000000000000000000, 0.0000000000000000000, -1.000000000000000000 ) ) ;
#24 = ORIENTED_EDGE ( 'NONE', *, *, #180, .T. ) ;
#25 = FILL_AREA_STYLE_COLOUR ( '', #67 ) ;
#26 =( GEOMETRIC_REPRESENTATION_CONTEXT ( 3 ) GLOBAL_UNCERTAINTY_ASSIGNED_CONTEXT ( ( #27 ) ) GLOBAL_UNIT_ASSIGNED_CONTEXT ( ( #92, #168, #79 ) ) REPRESENTATION_CONTEXT ( 'NONE', 'WORKASPACE' ) );
#27 = UNCERTAINTY_MEASURE_WITH_UNIT (LENGTH_MEASURE( 1.000000000000000082E-05 ), #92, 'distance_accuracy_value', 'NONE');
#28 =( NAMED_UNIT ( * ) SI_UNIT ( $, .STERADIAN. ) SOLID_ANGLE_UNIT ( ) );
#29 = SURFACE_STYLE_FILL_AREA ( #174 ) ;
#30 =( NAMED_UNIT ( * ) SI_UNIT ( $, .STERADIAN. ) SOLID_ANGLE_UNIT ( ) );
#31 = AXIS2_PLACEMENT_3D ( 'NONE', #35, #143, #23 ) ;
#32 = DIRECTION ( 'NONE',  ( 0.0000000000000000000, 0.0000000000000000000, -1.000000000000000000 ) ) ;
#33 = SURFACE_STYLE_USAGE ( .BOTH. , #3 ) ;
#34 = PRESENTATION_STYLE_ASSIGNMENT (( #129 ) ) ;
#35 = CARTESIAN_POINT ( 'NONE',  ( -1.530808498934191571E-16, 0.0000000000000000000, 0.0000000000000000000 ) ) ;
#36 =( NAMED_UNIT ( * ) SI_UNIT ( $, .STERADIAN. ) SOLID_ANGLE_UNIT ( ) );
#37 =( GEOMETRIC_REPRESENTATION_CONTEXT ( 3 ) GLOBAL_UNCERTAINTY_ASSIGNED_CONTEXT ( ( #80 ) ) GLOBAL_UNIT_ASSIGNED_CONTEXT ( ( #16, #75, #30 ) ) REPRESENTATION_CONTEXT ( 'NONE', 'WORKASPACE' ) );
#38 = FACE_OUTER_BOUND ( 'NONE', #9, .T. ) ;
#39 = CARTESIAN_POINT ( 'NONE',  ( -1.530808498934191571E-16, 0.0000000000000000000, 0.0000000000000000000 ) ) ;
#40 = VERTEX_POINT ( 'NONE', #205 ) ;
#41 = ADVANCED_FACE ( 'NONE', ( #104 ), #120, .F. ) ;
#42 =( LENGTH_UNIT ( ) NAMED_UNIT ( * ) SI_UNIT ( .MILLI., .METRE. ) );
#43 = VERTEX_POINT ( 'NONE', #192 ) ;
#44 = PRESENTATION_LAYER_ASSIGNMENT (  '', '', ( #61 ) ) ;
#45 = CARTESIAN_POINT ( 'NONE',  ( 0.0000000000000000000, 0.0000000000000000000, 0.0000000000000000000 ) ) ;
#46 = CIRCLE ( 'NONE', #71, 2.500000000000005773 ) ;
#47 = AXIS2_PLACEMENT_3D ( 'NONE', #45, #13, #98 ) ;
#48 = AXIS2_PLACEMENT_3D ( 'NONE', #77, #204, #94 ) ;
#49 =( GEOMETRIC_REPRESENTATION_CONTEXT ( 3 ) GLOBAL_UNCERTAINTY_ASSIGNED_CONTEXT ( ( #177 ) ) GLOBAL_UNIT_ASSIGNED_CONTEXT ( ( #8, #145, #36 ) ) REPRESENTATION_CONTEXT ( 'NONE', 'WORKASPACE' ) );
#50 = VERTEX_POINT ( 'NONE', #59 ) ;
#51 = DIRECTION ( 'NONE',  ( 1.000000000000000000, 0.0000000000000000000, 0.0000000000000000000 ) ) ;
#52 = CARTESIAN_POINT ( 'NONE',  ( 0.0000000000000000000, 0.0000000000000000000, 0.0000000000000000000 ) ) ;
#53 = AXIS2_PLACEMENT_3D ( 'NONE', #39, #55, #116 ) ;
#54 = PRODUCT_DEFINITION ( 'UNKNOWN', '', #69, #81 ) ;
#55 = DIRECTION ( 'NONE',  ( 1.000000000000000000, 0.0000000000000000000, 0.0000000000000000000 ) ) ;
#56 = CONICAL_SURFACE ( 'NONE', #53, 2.000000000000001776, 0.7853981633974533860 ) ;
#57 = SURFACE_SIDE_STYLE ('',( #136 ) ) ;
#58 = CIRCLE ( 'NONE', #31, 2.000000000000001776 ) ;
#59 = CARTESIAN_POINT ( 'NONE',  ( 0.4999999999999986122, 0.0000000000000000000, -2.500000000000005773 ) ) ;
#60 = VERTEX_POINT ( 'NONE', #87 ) ;
#61 = STYLED_ITEM ( 'NONE', ( #34 ), #118 ) ;
#62 = DIRECTION ( 'NONE',  ( 1.000000000000000000, 0.0000000000000000000, 0.0000000000000000000 ) ) ;
#63 = EDGE_LOOP ( 'NONE', ( #19 ) ) ;
#64 = PRESENTATION_STYLE_ASSIGNMENT (( #137 ) ) ;
#65 =( GEOMETRIC_REPRESENTATION_CONTEXT ( 3 ) GLOBAL_UNCERTAINTY_ASSIGNED_CONTEXT ( ( #76 ) ) GLOBAL_UNIT_ASSIGNED_CONTEXT ( ( #203, #85, #99 ) ) REPRESENTATION_CONTEXT ( 'NONE', 'WORKASPACE' ) );
#66 = FACE_OUTER_BOUND ( 'NONE', #89, .T. ) ;
#67 = COLOUR_RGB ( '',0.7921568627450980005, 0.8196078431372548767, 0.9333333333333333481 ) ;
#68 = AXIS2_PLACEMENT_3D ( 'NONE', #166, #51, #155 ) ;
#69 = PRODUCT_DEFINITION_FORMATION_WITH_SPECIFIED_SOURCE ( 'ANY', '', #83, .NOT_KNOWN. ) ;
#70 = SURFACE_STYLE_FILL_AREA ( #188 ) ;
#71 = AXIS2_PLACEMENT_3D ( 'NONE', #114, #62, #95 ) ;
#72 = PLANE ( 'NONE',  #200 ) ;
#73 = CONICAL_SURFACE ( 'NONE', #186, 2414.213562373075092, 1.178097245096169532 ) ;
#74 = FACE_BOUND ( 'NONE', #106, .T. ) ;
#75 =( NAMED_UNIT ( * ) PLANE_ANGLE_UNIT ( ) SI_UNIT ( $, .RADIAN. ) );
#76 = UNCERTAINTY_MEASURE_WITH_UNIT (LENGTH_MEASURE( 1.000000000000000082E-05 ), #203, 'distance_accuracy_value', 'NONE');
#77 = CARTESIAN_POINT ( 'NONE',  ( 33.99999999999999289, 0.0000000000000000000, 0.0000000000000000000 ) ) ;
#78 = STYLED_ITEM ( 'NONE', ( #64 ), #131 ) ;
#79 =( NAMED_UNIT ( * ) SI_UNIT ( $, .STERADIAN. ) SOLID_ANGLE_UNIT ( ) );
#80 = UNCERTAINTY_MEASURE_WITH_UNIT (LENGTH_MEASURE( 1.000000000000000082E-05 ), #16, 'distance_accuracy_value', 'NONE');
#81 = PRODUCT_DEFINITION_CONTEXT ( 'detailed design', #82, 'design' ) ;
#82 = APPLICATION_CONTEXT ( 'automotive_design' ) ;
#83 = PRODUCT ( '03-1656', '03-1656', '', ( #208 ) ) ;
#84 = ADVANCED_FACE ( 'NONE', ( #108 ), #73, .T. ) ;
#85 =( NAMED_UNIT ( * ) PLANE_ANGLE_UNIT ( ) SI_UNIT ( $, .RADIAN. ) );
#86 = CARTESIAN_POINT ( 'NONE',  ( -1.530808498934191571E-16, 2.500000000000000444, 0.0000000000000000000 ) ) ;
#87 = CARTESIAN_POINT ( 'NONE',  ( 33.99999999999999289, 0.0000000000000000000, -2.500000000000005773 ) ) ;
#88 = PRODUCT_RELATED_PRODUCT_CATEGORY ( 'part', '', ( #83 ) ) ;
#89 = EDGE_LOOP ( 'NONE', ( #12 ) ) ;
#90 =( GEOMETRIC_REPRESENTATION_CONTEXT ( 3 ) GLOBAL_UNCERTAINTY_ASSIGNED_CONTEXT ( ( #133 ) ) GLOBAL_UNIT_ASSIGNED_CONTEXT ( ( #42, #132, #28 ) ) REPRESENTATION_CONTEXT ( 'NONE', 'WORKASPACE' ) );
#91 = MECHANICAL_DESIGN_GEOMETRIC_PRESENTATION_REPRESENTATION (  '', ( #78 ), #37 ) ;
#92 =( LENGTH_UNIT ( ) NAMED_UNIT ( * ) SI_UNIT ( .MILLI., .METRE. ) );
#93 = SHAPE_DEFINITION_REPRESENTATION ( #164, #184 ) ;
#94 = DIRECTION ( 'NONE',  ( 0.0000000000000000000, 0.0000000000000000000, -1.000000000000000000 ) ) ;
#95 = DIRECTION ( 'NONE',  ( 0.0000000000000000000, 0.0000000000000000000, -1.000000000000000000 ) ) ;
#96 = COLOUR_RGB ( '',0.7921568627450980005, 0.8196078431372548767, 0.9333333333333333481 ) ;
#97 = MECHANICAL_DESIGN_GEOMETRIC_PRESENTATION_REPRESENTATION (  '', ( #113 ), #175 ) ;
#98 = DIRECTION ( 'NONE',  ( 1.000000000000000000, 0.0000000000000000000, 0.0000000000000000000 ) ) ;
#99 =( NAMED_UNIT ( * ) SI_UNIT ( $, .STERADIAN. ) SOLID_ANGLE_UNIT ( ) );
#100 = CIRCLE ( 'NONE', #119, 2.500000000000005773 ) ;
#101 = PRESENTATION_STYLE_ASSIGNMENT (( #33 ) ) ;
#102 = CARTESIAN_POINT ( 'NONE',  ( -1.530808498934191571E-16, 0.0000000000000000000, -2.000000000000001776 ) ) ;
#103 = AXIS2_PLACEMENT_3D ( 'NONE', #86, #151, #32 ) ;
#104 = FACE_OUTER_BOUND ( 'NONE', #185, .T. ) ;
#105 = VERTEX_POINT ( 'NONE', #102 ) ;
#106 = EDGE_LOOP ( 'NONE', ( #18 ) ) ;
#107 = ORIENTED_EDGE ( 'NONE', *, *, #206, .T. ) ;
#108 = FACE_OUTER_BOUND ( 'NONE', #198, .T. ) ;
#109 = SURFACE_SIDE_STYLE ('',( #2 ) ) ;
#110 = FILL_AREA_STYLE_COLOUR ( '', #153 ) ;
#111 = COLOUR_RGB ( '',1.000000000000000000, 1.000000000000000000, 0.0000000000000000000 ) ;
#112 = ADVANCED_FACE ( 'NONE', ( #66, #74 ), #56, .T. ) ;
#113 = STYLED_ITEM ( 'NONE', ( #101 ), #84 ) ;
#114 = CARTESIAN_POINT ( 'NONE',  ( 0.4999999999999986122, 0.0000000000000000000, 0.0000000000000000000 ) ) ;
#115 = FACE_OUTER_BOUND ( 'NONE', #4, .T. ) ;
#116 = DIRECTION ( 'NONE',  ( 0.0000000000000000000, 0.0000000000000000000, -1.000000000000000000 ) ) ;
#117 = FILL_AREA_STYLE_COLOUR ( '', #96 ) ;
#118 = MANIFOLD_SOLID_BREP ( 'ºÐÇÒ2[2]', #154 ) ;
#119 = AXIS2_PLACEMENT_3D ( 'NONE', #209, #213, #199 ) ;
#120 = PLANE ( 'NONE',  #103 ) ;
#121 =( LENGTH_UNIT ( ) NAMED_UNIT ( * ) SI_UNIT ( .MILLI., .METRE. ) );
#122 = PRESENTATION_LAYER_ASSIGNMENT (  '', '', ( #196 ) ) ;
#123 = MECHANICAL_DESIGN_GEOMETRIC_PRESENTATION_REPRESENTATION (  '', ( #61 ), #49 ) ;
#124 = UNCERTAINTY_MEASURE_WITH_UNIT (LENGTH_MEASURE( 1.000000000000000082E-05 ), #121, 'distance_accuracy_value', 'NONE');
#125 = DIRECTION ( 'NONE',  ( -1.000000000000000000, -0.0000000000000000000, -0.0000000000000000000 ) ) ;
#126 = DIRECTION ( 'NONE',  ( -1.000000000000000000, -0.0000000000000000000, -0.0000000000000000000 ) ) ;
#127 = FACE_OUTER_BOUND ( 'NONE', #150, .T. ) ;
#128 = CYLINDRICAL_SURFACE ( 'NONE', #201, 2.500000000000005773 ) ;
#129 = SURFACE_STYLE_USAGE ( .BOTH. , #158 ) ;
#130 = CYLINDRICAL_SURFACE ( 'NONE', #1, 2.500000000000005773 ) ;
#131 = ADVANCED_FACE ( 'NONE', ( #115, #159 ), #130, .T. ) ;
#132 =( NAMED_UNIT ( * ) PLANE_ANGLE_UNIT ( ) SI_UNIT ( $, .RADIAN. ) );
#133 = UNCERTAINTY_MEASURE_WITH_UNIT (LENGTH_MEASURE( 1.000000000000000082E-05 ), #42, 'distance_accuracy_value', 'NONE');
#134 = FILL_AREA_STYLE_COLOUR ( '', #181 ) ;
#135 = PRESENTATION_LAYER_ASSIGNMENT (  '', '', ( #78 ) ) ;
#136 = SURFACE_STYLE_FILL_AREA ( #162 ) ;
#137 = SURFACE_STYLE_USAGE ( .BOTH. , #212 ) ;
#138 = FILL_AREA_STYLE_COLOUR ( '', #111 ) ;
#139 = FACE_OUTER_BOUND ( 'NONE', #156, .T. ) ;
#140 = CARTESIAN_POINT ( 'NONE',  ( -914.0000000000000000, 0.0000000000000000000, 0.0000000000000000000 ) ) ;
#141 = CIRCLE ( 'NONE', #21, 2.500000000000010658 ) ;
#142 = FILL_AREA_STYLE ('',( #110 ) ) ;
#143 = DIRECTION ( 'NONE',  ( -1.000000000000000000, -0.0000000000000000000, -0.0000000000000000000 ) ) ;
#144 = DIRECTION ( 'NONE',  ( 0.0000000000000000000, 0.0000000000000000000, 1.000000000000000000 ) ) ;
#145 =( NAMED_UNIT ( * ) PLANE_ANGLE_UNIT ( ) SI_UNIT ( $, .RADIAN. ) );
#146 = DIRECTION ( 'NONE',  ( 0.0000000000000000000, 0.0000000000000000000, -1.000000000000000000 ) ) ;
#147 = PRESENTATION_LAYER_ASSIGNMENT (  '', '', ( #113 ) ) ;
#148 = ADVANCED_FACE ( 'NONE', ( #139 ), #7, .T. ) ;
#149 = SURFACE_STYLE_USAGE ( .BOTH. , #57 ) ;
#150 = EDGE_LOOP ( 'NONE', ( #176 ) ) ;
#151 = DIRECTION ( 'NONE',  ( 1.000000000000000000, 0.0000000000000000000, 0.0000000000000000000 ) ) ;
#152 = PRESENTATION_STYLE_ASSIGNMENT (( #149 ) ) ;
#153 = COLOUR_RGB ( '',0.7921568627450980005, 0.8196078431372548767, 0.9333333333333333481 ) ;
#154 = CLOSED_SHELL ( 'NONE', ( #207, #131, #84 ) ) ;
#155 = DIRECTION ( 'NONE',  ( 0.0000000000000000000, 0.0000000000000000000, -1.000000000000000000 ) ) ;
#156 = EDGE_LOOP ( 'NONE', ( #10 ) ) ;
#157 = CARTESIAN_POINT ( 'NONE',  ( 33.99999999999999289, 0.0000000000000000000, 0.0000000000000000000 ) ) ;
#158 = SURFACE_SIDE_STYLE ('',( #17 ) ) ;
#159 = FACE_OUTER_BOUND ( 'NONE', #179, .T. ) ;
#160 = EDGE_CURVE ( 'NONE', #105, #105, #58, .T. ) ;
#161 =( NAMED_UNIT ( * ) SI_UNIT ( $, .STERADIAN. ) SOLID_ANGLE_UNIT ( ) );
#162 = FILL_AREA_STYLE ('',( #117 ) ) ;
#163 = DIRECTION ( 'NONE',  ( -1.000000000000000000, -0.0000000000000000000, -0.0000000000000000000 ) ) ;
#164 = PRODUCT_DEFINITION_SHAPE ( 'NONE', 'NONE',  #54 ) ;
#165 = MECHANICAL_DESIGN_GEOMETRIC_PRESENTATION_REPRESENTATION (  '', ( #190 ), #26 ) ;
#166 = CARTESIAN_POINT ( 'NONE',  ( 33.99999999999999289, 0.0000000000000000000, 0.0000000000000000000 ) ) ;
#167 = DIRECTION ( 'NONE',  ( 0.0000000000000000000, 0.0000000000000000000, 1.000000000000000000 ) ) ;
#168 =( NAMED_UNIT ( * ) PLANE_ANGLE_UNIT ( ) SI_UNIT ( $, .RADIAN. ) );
#169 = PRESENTATION_STYLE_ASSIGNMENT (( #202 ) ) ;
#170 = DIRECTION ( 'NONE',  ( 1.000000000000000000, 0.0000000000000000000, 0.0000000000000000000 ) ) ;
#171 =( NAMED_UNIT ( * ) PLANE_ANGLE_UNIT ( ) SI_UNIT ( $, .RADIAN. ) );
#172 = ADVANCED_FACE ( 'NONE', ( #38, #127 ), #128, .T. ) ;
#173 = FACE_OUTER_BOUND ( 'NONE', #63, .T. ) ;
#174 = FILL_AREA_STYLE ('',( #138 ) ) ;
#175 =( GEOMETRIC_REPRESENTATION_CONTEXT ( 3 ) GLOBAL_UNCERTAINTY_ASSIGNED_CONTEXT ( ( #124 ) ) GLOBAL_UNIT_ASSIGNED_CONTEXT ( ( #121, #171, #161 ) ) REPRESENTATION_CONTEXT ( 'NONE', 'WORKASPACE' ) );
#176 = ORIENTED_EDGE ( 'NONE', *, *, #5, .F. ) ;
#177 = UNCERTAINTY_MEASURE_WITH_UNIT (LENGTH_MEASURE( 1.000000000000000082E-05 ), #8, 'distance_accuracy_value', 'NONE');
#178 = PRESENTATION_LAYER_ASSIGNMENT (  '', '', ( #190 ) ) ;
#179 = EDGE_LOOP ( 'NONE', ( #20 ) ) ;
#180 = EDGE_CURVE ( 'NONE', #60, #60, #211, .T. ) ;
#181 = COLOUR_RGB ( '',1.000000000000000000, 1.000000000000000000, 0.0000000000000000000 ) ;
#182 = DIRECTION ( 'NONE',  ( -1.000000000000000000, -0.0000000000000000000, -0.0000000000000000000 ) ) ;
#183 = APPLICATION_PROTOCOL_DEFINITION ( 'draft international standard', 'automotive_design', 1998, #210 ) ;
#184 = ADVANCED_BREP_SHAPE_REPRESENTATION ( '03-1656', ( #195, #118, #47 ), #65 ) ;
#185 = EDGE_LOOP ( 'NONE', ( #15 ) ) ;
#186 = AXIS2_PLACEMENT_3D ( 'NONE', #140, #163, #197 ) ;
#187 = MECHANICAL_DESIGN_GEOMETRIC_PRESENTATION_REPRESENTATION (  '', ( #196 ), #90 ) ;
#188 = FILL_AREA_STYLE ('',( #134 ) ) ;
#189 = CLOSED_SHELL ( 'NONE', ( #172, #41, #112, #148 ) ) ;
#190 = STYLED_ITEM ( 'NONE', ( #169 ), #195 ) ;
#191 = APPLICATION_PROTOCOL_DEFINITION ( 'draft international standard', 'automotive_design', 1998, #82 ) ;
#192 = CARTESIAN_POINT ( 'NONE',  ( 33.99999999999999289, 0.0000000000000000000, -2.500000000000005773 ) ) ;
#193 = EDGE_CURVE ( 'NONE', #40, #40, #141, .T. ) ;
#194 = ORIENTED_EDGE ( 'NONE', *, *, #193, .F. ) ;
#195 = MANIFOLD_SOLID_BREP ( 'ºÐÇÒ2[1]', #189 ) ;
#196 = STYLED_ITEM ( 'NONE', ( #152 ), #184 ) ;
#197 = DIRECTION ( 'NONE',  ( 0.0000000000000000000, 0.0000000000000000000, 1.000000000000000000 ) ) ;
#198 = EDGE_LOOP ( 'NONE', ( #194 ) ) ;
#199 = DIRECTION ( 'NONE',  ( 0.0000000000000000000, 0.0000000000000000000, -1.000000000000000000 ) ) ;
#200 = AXIS2_PLACEMENT_3D ( 'NONE', #157, #170, #146 ) ;
#201 = AXIS2_PLACEMENT_3D ( 'NONE', #52, #182, #167 ) ;
#202 = SURFACE_STYLE_USAGE ( .BOTH. , #109 ) ;
#203 =( LENGTH_UNIT ( ) NAMED_UNIT ( * ) SI_UNIT ( .MILLI., .METRE. ) );
#204 = DIRECTION ( 'NONE',  ( 1.000000000000000000, 0.0000000000000000000, 0.0000000000000000000 ) ) ;
#205 = CARTESIAN_POINT ( 'NONE',  ( 84.96446609406724804, 0.0000000000000000000, 2.500000000000010658 ) ) ;
#206 = EDGE_CURVE ( 'NONE', #50, #50, #46, .T. ) ;
#207 = ADVANCED_FACE ( 'NONE', ( #173 ), #72, .F. ) ;
#208 = PRODUCT_CONTEXT ( 'NONE', #210, 'mechanical' ) ;
#209 = CARTESIAN_POINT ( 'NONE',  ( 33.99999999999999289, 0.0000000000000000000, 0.0000000000000000000 ) ) ;
#210 = APPLICATION_CONTEXT ( 'automotive_design' ) ;
#211 = CIRCLE ( 'NONE', #68, 2.500000000000005773 ) ;
#212 = SURFACE_SIDE_STYLE ('',( #70 ) ) ;
#213 = DIRECTION ( 'NONE',  ( 1.000000000000000000, 0.0000000000000000000, 0.0000000000000000000 ) ) ;
ENDSEC;
END-ISO-10303-21;
