ISO-10303-21;
HEADER;
FILE_DESCRIPTION (( 'STEP AP214' ),
    '1' );
FILE_NAME ('03-1658.STEP',
    '2021-10-01T05:30:24',
    ( 'USER' ),
    ( '' ),
    'SwSTEP 2.0',
    'SolidWorks 2018',
    '' );
FILE_SCHEMA (( 'AUTOMOTIVE_DESIGN' ));
ENDSEC;

DATA;
#1 = FILL_AREA_STYLE_COLOUR ( '', #196 ) ;
#2 = CARTESIAN_POINT ( 'NONE',  ( 33.99999999999999289, 0.0000000000000000000, -2.600000000000004974 ) ) ;
#3 = AXIS2_PLACEMENT_3D ( 'NONE', #163, #130, #93 ) ;
#4 =( LENGTH_UNIT ( ) NAMED_UNIT ( * ) SI_UNIT ( .MILLI., .METRE. ) );
#5 =( GEOMETRIC_REPRESENTATION_CONTEXT ( 3 ) GLOBAL_UNCERTAINTY_ASSIGNED_CONTEXT ( ( #37 ) ) GLOBAL_UNIT_ASSIGNED_CONTEXT ( ( #4, #118, #57 ) ) REPRESENTATION_CONTEXT ( 'NONE', 'WORKASPACE' ) );
#6 = FACE_OUTER_BOUND ( 'NONE', #142, .T. ) ;
#7 = UNCERTAINTY_MEASURE_WITH_UNIT (LENGTH_MEASURE( 1.000000000000000082E-05 ), #143, 'distance_accuracy_value', 'NONE');
#8 = AXIS2_PLACEMENT_3D ( 'NONE', #45, #122, #14 ) ;
#9 = DIRECTION ( 'NONE',  ( -1.000000000000000000, -0.0000000000000000000, -0.0000000000000000000 ) ) ;
#10 = CARTESIAN_POINT ( 'NONE',  ( 0.0000000000000000000, 0.0000000000000000000, 0.0000000000000000000 ) ) ;
#11 = AXIS2_PLACEMENT_3D ( 'NONE', #165, #152, #203 ) ;
#12 = EDGE_LOOP ( 'NONE', ( #17 ) ) ;
#13 = DIRECTION ( 'NONE',  ( 1.000000000000000000, 0.0000000000000000000, 0.0000000000000000000 ) ) ;
#14 = DIRECTION ( 'NONE',  ( 0.0000000000000000000, 0.0000000000000000000, -1.000000000000000000 ) ) ;
#15 = CARTESIAN_POINT ( 'NONE',  ( 33.99999999999999289, 0.0000000000000000000, -2.600000000000004974 ) ) ;
#16 = PRESENTATION_LAYER_ASSIGNMENT (  '', '', ( #26 ) ) ;
#17 = ORIENTED_EDGE ( 'NONE', *, *, #185, .F. ) ;
#18 = ADVANCED_FACE ( 'NONE', ( #162 ), #78, .F. ) ;
#19 = PRESENTATION_LAYER_ASSIGNMENT (  '', '', ( #30 ) ) ;
#20 = ORIENTED_EDGE ( 'NONE', *, *, #50, .T. ) ;
#21 = PRODUCT_DEFINITION_SHAPE ( 'NONE', 'NONE',  #39 ) ;
#22 = FILL_AREA_STYLE ('',( #24 ) ) ;
#23 = DIRECTION ( 'NONE',  ( -1.000000000000000000, -0.0000000000000000000, -0.0000000000000000000 ) ) ;
#24 = FILL_AREA_STYLE_COLOUR ( '', #173 ) ;
#25 = VERTEX_POINT ( 'NONE', #184 ) ;
#26 = STYLED_ITEM ( 'NONE', ( #210 ), #211 ) ;
#27 = ORIENTED_EDGE ( 'NONE', *, *, #185, .T. ) ;
#28 = CARTESIAN_POINT ( 'NONE',  ( 0.0000000000000000000, 0.0000000000000000000, 0.0000000000000000000 ) ) ;
#29 = FACE_OUTER_BOUND ( 'NONE', #66, .T. ) ;
#30 = STYLED_ITEM ( 'NONE', ( #97 ), #63 ) ;
#31 = ORIENTED_EDGE ( 'NONE', *, *, #170, .T. ) ;
#32 = AXIS2_PLACEMENT_3D ( 'NONE', #100, #147, #145 ) ;
#33 = ADVANCED_FACE ( 'NONE', ( #166, #77 ), #176, .T. ) ;
#34 = CIRCLE ( 'NONE', #71, 2.600000000000004974 ) ;
#35 = PLANE ( 'NONE',  #36 ) ;
#36 = AXIS2_PLACEMENT_3D ( 'NONE', #139, #53, #167 ) ;
#37 = UNCERTAINTY_MEASURE_WITH_UNIT (LENGTH_MEASURE( 1.000000000000000082E-05 ), #4, 'distance_accuracy_value', 'NONE');
#38 =( LENGTH_UNIT ( ) NAMED_UNIT ( * ) SI_UNIT ( .MILLI., .METRE. ) );
#39 = PRODUCT_DEFINITION ( 'UNKNOWN', '', #76, #148 ) ;
#40 = AXIS2_PLACEMENT_3D ( 'NONE', #111, #23, #159 ) ;
#41 =( NAMED_UNIT ( * ) SI_UNIT ( $, .STERADIAN. ) SOLID_ANGLE_UNIT ( ) );
#42 = DIRECTION ( 'NONE',  ( 0.0000000000000000000, 0.0000000000000000000, 1.000000000000000000 ) ) ;
#43 = FILL_AREA_STYLE ('',( #59 ) ) ;
#44 = AXIS2_PLACEMENT_3D ( 'NONE', #161, #95, #87 ) ;
#45 = CARTESIAN_POINT ( 'NONE',  ( -1.592040838891559095E-16, 0.0000000000000000000, 0.0000000000000000000 ) ) ;
#46 = FACE_OUTER_BOUND ( 'NONE', #205, .T. ) ;
#47 =( LENGTH_UNIT ( ) NAMED_UNIT ( * ) SI_UNIT ( .MILLI., .METRE. ) );
#48 = FILL_AREA_STYLE_COLOUR ( '', #127 ) ;
#49 = CONICAL_SURFACE ( 'NONE', #8, 2.079999999999991633, 0.7853981633974537191 ) ;
#50 = EDGE_CURVE ( 'NONE', #202, #202, #90, .T. ) ;
#51 = MECHANICAL_DESIGN_GEOMETRIC_PRESENTATION_REPRESENTATION (  '', ( #30 ), #91 ) ;
#52 = ORIENTED_EDGE ( 'NONE', *, *, #197, .T. ) ;
#53 = DIRECTION ( 'NONE',  ( 1.000000000000000000, 0.0000000000000000000, 0.0000000000000000000 ) ) ;
#54 = PRESENTATION_LAYER_ASSIGNMENT (  '', '', ( #124 ) ) ;
#55 =( NAMED_UNIT ( * ) PLANE_ANGLE_UNIT ( ) SI_UNIT ( $, .RADIAN. ) );
#56 = FACE_OUTER_BOUND ( 'NONE', #70, .T. ) ;
#57 =( NAMED_UNIT ( * ) SI_UNIT ( $, .STERADIAN. ) SOLID_ANGLE_UNIT ( ) );
#58 =( GEOMETRIC_REPRESENTATION_CONTEXT ( 3 ) GLOBAL_UNCERTAINTY_ASSIGNED_CONTEXT ( ( #7 ) ) GLOBAL_UNIT_ASSIGNED_CONTEXT ( ( #143, #55, #207 ) ) REPRESENTATION_CONTEXT ( 'NONE', 'WORKASPACE' ) );
#59 = FILL_AREA_STYLE_COLOUR ( '', #187 ) ;
#60 = ORIENTED_EDGE ( 'NONE', *, *, #160, .F. ) ;
#61 = CYLINDRICAL_SURFACE ( 'NONE', #3, 2.600000000000004974 ) ;
#62 = SHAPE_DEFINITION_REPRESENTATION ( #21, #63 ) ;
#63 = ADVANCED_BREP_SHAPE_REPRESENTATION ( '03-1658', ( #211, #171, #137 ), #113 ) ;
#64 = CARTESIAN_POINT ( 'NONE',  ( 84.92304473782992602, 0.0000000000000000000, 0.0000000000000000000 ) ) ;
#65 = DIRECTION ( 'NONE',  ( -1.000000000000000000, -0.0000000000000000000, -0.0000000000000000000 ) ) ;
#66 = EDGE_LOOP ( 'NONE', ( #110 ) ) ;
#67 = UNCERTAINTY_MEASURE_WITH_UNIT (LENGTH_MEASURE( 1.000000000000000082E-05 ), #186, 'distance_accuracy_value', 'NONE');
#68 = APPLICATION_CONTEXT ( 'automotive_design' ) ;
#69 = PRODUCT_RELATED_PRODUCT_CATEGORY ( 'part', '', ( #154 ) ) ;
#70 = EDGE_LOOP ( 'NONE', ( #60 ) ) ;
#71 = AXIS2_PLACEMENT_3D ( 'NONE', #132, #13, #128 ) ;
#72 = ADVANCED_FACE ( 'NONE', ( #29, #212 ), #49, .T. ) ;
#73 = UNCERTAINTY_MEASURE_WITH_UNIT (LENGTH_MEASURE( 1.000000000000000082E-05 ), #131, 'distance_accuracy_value', 'NONE');
#74 = EDGE_LOOP ( 'NONE', ( #27 ) ) ;
#75 =( GEOMETRIC_REPRESENTATION_CONTEXT ( 3 ) GLOBAL_UNCERTAINTY_ASSIGNED_CONTEXT ( ( #108 ) ) GLOBAL_UNIT_ASSIGNED_CONTEXT ( ( #47, #204, #104 ) ) REPRESENTATION_CONTEXT ( 'NONE', 'WORKASPACE' ) );
#76 = PRODUCT_DEFINITION_FORMATION_WITH_SPECIFIED_SOURCE ( 'ANY', '', #154, .NOT_KNOWN. ) ;
#77 = FACE_OUTER_BOUND ( 'NONE', #92, .T. ) ;
#78 = PLANE ( 'NONE',  #194 ) ;
#79 = PRESENTATION_STYLE_ASSIGNMENT (( #189 ) ) ;
#80 = DIRECTION ( 'NONE',  ( 1.000000000000000000, 0.0000000000000000000, 0.0000000000000000000 ) ) ;
#81 = MECHANICAL_DESIGN_GEOMETRIC_PRESENTATION_REPRESENTATION (  '', ( #124 ), #5 ) ;
#82 = SURFACE_STYLE_USAGE ( .BOTH. , #101 ) ;
#83 = PLANE ( 'NONE',  #151 ) ;
#84 =( NAMED_UNIT ( * ) PLANE_ANGLE_UNIT ( ) SI_UNIT ( $, .RADIAN. ) );
#85 = SURFACE_STYLE_FILL_AREA ( #140 ) ;
#86 = SURFACE_STYLE_FILL_AREA ( #200 ) ;
#87 = DIRECTION ( 'NONE',  ( 0.0000000000000000000, 0.0000000000000000000, -1.000000000000000000 ) ) ;
#88 = PRODUCT_CONTEXT ( 'NONE', #68, 'mechanical' ) ;
#89 = MECHANICAL_DESIGN_GEOMETRIC_PRESENTATION_REPRESENTATION (  '', ( #26 ), #75 ) ;
#90 = CIRCLE ( 'NONE', #157, 2.600000000000010303 ) ;
#91 =( GEOMETRIC_REPRESENTATION_CONTEXT ( 3 ) GLOBAL_UNCERTAINTY_ASSIGNED_CONTEXT ( ( #67 ) ) GLOBAL_UNIT_ASSIGNED_CONTEXT ( ( #186, #146, #181 ) ) REPRESENTATION_CONTEXT ( 'NONE', 'WORKASPACE' ) );
#92 = EDGE_LOOP ( 'NONE', ( #168 ) ) ;
#93 = DIRECTION ( 'NONE',  ( 0.0000000000000000000, 0.0000000000000000000, 1.000000000000000000 ) ) ;
#94 = PRESENTATION_STYLE_ASSIGNMENT (( #149 ) ) ;
#95 = DIRECTION ( 'NONE',  ( 1.000000000000000000, 0.0000000000000000000, 0.0000000000000000000 ) ) ;
#96 = DIRECTION ( 'NONE',  ( 0.0000000000000000000, 0.0000000000000000000, -1.000000000000000000 ) ) ;
#97 = PRESENTATION_STYLE_ASSIGNMENT (( #115 ) ) ;
#98 = VERTEX_POINT ( 'NONE', #2 ) ;
#99 = APPLICATION_CONTEXT ( 'automotive_design' ) ;
#100 = CARTESIAN_POINT ( 'NONE',  ( -914.0000000000000000, 0.0000000000000000000, 0.0000000000000000000 ) ) ;
#101 = SURFACE_SIDE_STYLE ('',( #86 ) ) ;
#102 = CIRCLE ( 'NONE', #40, 2.079999999999991633 ) ;
#103 = SURFACE_STYLE_FILL_AREA ( #22 ) ;
#104 =( NAMED_UNIT ( * ) SI_UNIT ( $, .STERADIAN. ) SOLID_ANGLE_UNIT ( ) );
#105 = STYLED_ITEM ( 'NONE', ( #94 ), #119 ) ;
#106 = EDGE_LOOP ( 'NONE', ( #182 ) ) ;
#107 = ADVANCED_FACE ( 'NONE', ( #116 ), #83, .T. ) ;
#108 = UNCERTAINTY_MEASURE_WITH_UNIT (LENGTH_MEASURE( 1.000000000000000082E-05 ), #47, 'distance_accuracy_value', 'NONE');
#109 = DIRECTION ( 'NONE',  ( 1.000000000000000000, 0.0000000000000000000, 0.0000000000000000000 ) ) ;
#110 = ORIENTED_EDGE ( 'NONE', *, *, #197, .F. ) ;
#111 = CARTESIAN_POINT ( 'NONE',  ( -1.592040838891559095E-16, 0.0000000000000000000, 0.0000000000000000000 ) ) ;
#112 = DIRECTION ( 'NONE',  ( 0.0000000000000000000, 0.0000000000000000000, 1.000000000000000000 ) ) ;
#113 =( GEOMETRIC_REPRESENTATION_CONTEXT ( 3 ) GLOBAL_UNCERTAINTY_ASSIGNED_CONTEXT ( ( #73 ) ) GLOBAL_UNIT_ASSIGNED_CONTEXT ( ( #131, #84, #156 ) ) REPRESENTATION_CONTEXT ( 'NONE', 'WORKASPACE' ) );
#114 = EDGE_LOOP ( 'NONE', ( #31 ) ) ;
#115 = SURFACE_STYLE_USAGE ( .BOTH. , #155 ) ;
#116 = FACE_OUTER_BOUND ( 'NONE', #114, .T. ) ;
#117 = FILL_AREA_STYLE ('',( #48 ) ) ;
#118 =( NAMED_UNIT ( * ) PLANE_ANGLE_UNIT ( ) SI_UNIT ( $, .RADIAN. ) );
#119 = ADVANCED_FACE ( 'NONE', ( #6 ), #134, .T. ) ;
#120 = SURFACE_SIDE_STYLE ('',( #85 ) ) ;
#121 = COLOUR_RGB ( '',0.7921568627450980005, 0.8196078431372548767, 0.9333333333333333481 ) ;
#122 = DIRECTION ( 'NONE',  ( 1.000000000000000000, 0.0000000000000000000, 0.0000000000000000000 ) ) ;
#123 = CARTESIAN_POINT ( 'NONE',  ( -1.592040838891559095E-16, 2.599999999999999645, 0.0000000000000000000 ) ) ;
#124 = STYLED_ITEM ( 'NONE', ( #79 ), #171 ) ;
#125 = FILL_AREA_STYLE_COLOUR ( '', #121 ) ;
#126 = CIRCLE ( 'NONE', #44, 2.600000000000004974 ) ;
#127 = COLOUR_RGB ( '',0.7921568627450980005, 0.8196078431372548767, 0.9333333333333333481 ) ;
#128 = DIRECTION ( 'NONE',  ( 0.0000000000000000000, 0.0000000000000000000, -1.000000000000000000 ) ) ;
#129 = DIRECTION ( 'NONE',  ( 0.0000000000000000000, 0.0000000000000000000, -1.000000000000000000 ) ) ;
#130 = DIRECTION ( 'NONE',  ( -1.000000000000000000, -0.0000000000000000000, -0.0000000000000000000 ) ) ;
#131 =( LENGTH_UNIT ( ) NAMED_UNIT ( * ) SI_UNIT ( .MILLI., .METRE. ) );
#132 = CARTESIAN_POINT ( 'NONE',  ( 33.99999999999999289, 0.0000000000000000000, 0.0000000000000000000 ) ) ;
#133 = CARTESIAN_POINT ( 'NONE',  ( 0.5200000000000077893, 0.0000000000000000000, -2.600000000000004974 ) ) ;
#134 = CONICAL_SURFACE ( 'NONE', #32, 2414.213562373058721, 1.178097245096167089 ) ;
#135 = PRESENTATION_LAYER_ASSIGNMENT (  '', '', ( #199 ) ) ;
#136 = PRESENTATION_STYLE_ASSIGNMENT (( #141 ) ) ;
#137 = AXIS2_PLACEMENT_3D ( 'NONE', #28, #42, #80 ) ;
#138 = SURFACE_STYLE_FILL_AREA ( #43 ) ;
#139 = CARTESIAN_POINT ( 'NONE',  ( 33.99999999999999289, 0.0000000000000000000, 0.0000000000000000000 ) ) ;
#140 = FILL_AREA_STYLE ('',( #125 ) ) ;
#141 = SURFACE_STYLE_USAGE ( .BOTH. , #174 ) ;
#142 = EDGE_LOOP ( 'NONE', ( #158 ) ) ;
#143 =( LENGTH_UNIT ( ) NAMED_UNIT ( * ) SI_UNIT ( .MILLI., .METRE. ) );
#144 = PRESENTATION_LAYER_ASSIGNMENT (  '', '', ( #105 ) ) ;
#145 = DIRECTION ( 'NONE',  ( 0.0000000000000000000, 0.0000000000000000000, 1.000000000000000000 ) ) ;
#146 =( NAMED_UNIT ( * ) PLANE_ANGLE_UNIT ( ) SI_UNIT ( $, .RADIAN. ) );
#147 = DIRECTION ( 'NONE',  ( -1.000000000000000000, -0.0000000000000000000, -0.0000000000000000000 ) ) ;
#148 = PRODUCT_DEFINITION_CONTEXT ( 'detailed design', #99, 'design' ) ;
#149 = SURFACE_STYLE_USAGE ( .BOTH. , #150 ) ;
#150 = SURFACE_SIDE_STYLE ('',( #138 ) ) ;
#151 = AXIS2_PLACEMENT_3D ( 'NONE', #153, #164, #96 ) ;
#152 = DIRECTION ( 'NONE',  ( 1.000000000000000000, 0.0000000000000000000, 0.0000000000000000000 ) ) ;
#153 = CARTESIAN_POINT ( 'NONE',  ( 33.99999999999999289, 0.0000000000000000000, 0.0000000000000000000 ) ) ;
#154 = PRODUCT ( '03-1658', '03-1658', '', ( #88 ) ) ;
#155 = SURFACE_SIDE_STYLE ('',( #190 ) ) ;
#156 =( NAMED_UNIT ( * ) SI_UNIT ( $, .STERADIAN. ) SOLID_ANGLE_UNIT ( ) );
#157 = AXIS2_PLACEMENT_3D ( 'NONE', #64, #65, #195 ) ;
#158 = ORIENTED_EDGE ( 'NONE', *, *, #50, .F. ) ;
#159 = DIRECTION ( 'NONE',  ( 0.0000000000000000000, 0.0000000000000000000, -1.000000000000000000 ) ) ;
#160 = EDGE_CURVE ( 'NONE', #98, #98, #34, .T. ) ;
#161 = CARTESIAN_POINT ( 'NONE',  ( 33.99999999999999289, 0.0000000000000000000, 0.0000000000000000000 ) ) ;
#162 = FACE_OUTER_BOUND ( 'NONE', #74, .T. ) ;
#163 = CARTESIAN_POINT ( 'NONE',  ( 0.0000000000000000000, 0.0000000000000000000, 0.0000000000000000000 ) ) ;
#164 = DIRECTION ( 'NONE',  ( 1.000000000000000000, 0.0000000000000000000, 0.0000000000000000000 ) ) ;
#165 = CARTESIAN_POINT ( 'NONE',  ( 0.5200000000000077893, 0.0000000000000000000, 0.0000000000000000000 ) ) ;
#166 = FACE_OUTER_BOUND ( 'NONE', #206, .T. ) ;
#167 = DIRECTION ( 'NONE',  ( 0.0000000000000000000, 0.0000000000000000000, -1.000000000000000000 ) ) ;
#168 = ORIENTED_EDGE ( 'NONE', *, *, #170, .F. ) ;
#169 = VERTEX_POINT ( 'NONE', #15 ) ;
#170 = EDGE_CURVE ( 'NONE', #169, #169, #126, .T. ) ;
#171 = MANIFOLD_SOLID_BREP ( 'ºÐÇÒ2[2]', #192 ) ;
#172 = ADVANCED_FACE ( 'NONE', ( #175, #46 ), #61, .T. ) ;
#173 = COLOUR_RGB ( '',1.000000000000000000, 1.000000000000000000, 0.0000000000000000000 ) ;
#174 = SURFACE_SIDE_STYLE ('',( #103 ) ) ;
#175 = FACE_OUTER_BOUND ( 'NONE', #106, .T. ) ;
#176 = CYLINDRICAL_SURFACE ( 'NONE', #178, 2.600000000000004974 ) ;
#177 = VERTEX_POINT ( 'NONE', #133 ) ;
#178 = AXIS2_PLACEMENT_3D ( 'NONE', #10, #9, #112 ) ;
#179 =( NAMED_UNIT ( * ) PLANE_ANGLE_UNIT ( ) SI_UNIT ( $, .RADIAN. ) );
#180 =( GEOMETRIC_REPRESENTATION_CONTEXT ( 3 ) GLOBAL_UNCERTAINTY_ASSIGNED_CONTEXT ( ( #183 ) ) GLOBAL_UNIT_ASSIGNED_CONTEXT ( ( #38, #179, #41 ) ) REPRESENTATION_CONTEXT ( 'NONE', 'WORKASPACE' ) );
#181 =( NAMED_UNIT ( * ) SI_UNIT ( $, .STERADIAN. ) SOLID_ANGLE_UNIT ( ) );
#182 = ORIENTED_EDGE ( 'NONE', *, *, #160, .T. ) ;
#183 = UNCERTAINTY_MEASURE_WITH_UNIT (LENGTH_MEASURE( 1.000000000000000082E-05 ), #38, 'distance_accuracy_value', 'NONE');
#184 = CARTESIAN_POINT ( 'NONE',  ( -1.592040838891559095E-16, 0.0000000000000000000, -2.079999999999991633 ) ) ;
#185 = EDGE_CURVE ( 'NONE', #25, #25, #102, .T. ) ;
#186 =( LENGTH_UNIT ( ) NAMED_UNIT ( * ) SI_UNIT ( .MILLI., .METRE. ) );
#187 = COLOUR_RGB ( '',1.000000000000000000, 1.000000000000000000, 0.0000000000000000000 ) ;
#188 = APPLICATION_PROTOCOL_DEFINITION ( 'draft international standard', 'automotive_design', 1998, #99 ) ;
#189 = SURFACE_STYLE_USAGE ( .BOTH. , #120 ) ;
#190 = SURFACE_STYLE_FILL_AREA ( #117 ) ;
#191 = APPLICATION_PROTOCOL_DEFINITION ( 'draft international standard', 'automotive_design', 1998, #68 ) ;
#192 = CLOSED_SHELL ( 'NONE', ( #193, #172, #119 ) ) ;
#193 = ADVANCED_FACE ( 'NONE', ( #56 ), #35, .F. ) ;
#194 = AXIS2_PLACEMENT_3D ( 'NONE', #123, #109, #129 ) ;
#195 = DIRECTION ( 'NONE',  ( 0.0000000000000000000, 0.0000000000000000000, 1.000000000000000000 ) ) ;
#196 = COLOUR_RGB ( '',0.7921568627450980005, 0.8196078431372548767, 0.9333333333333333481 ) ;
#197 = EDGE_CURVE ( 'NONE', #177, #177, #201, .T. ) ;
#198 = CLOSED_SHELL ( 'NONE', ( #33, #18, #72, #107 ) ) ;
#199 = STYLED_ITEM ( 'NONE', ( #136 ), #172 ) ;
#200 = FILL_AREA_STYLE ('',( #1 ) ) ;
#201 = CIRCLE ( 'NONE', #11, 2.600000000000004974 ) ;
#202 = VERTEX_POINT ( 'NONE', #213 ) ;
#203 = DIRECTION ( 'NONE',  ( 0.0000000000000000000, 0.0000000000000000000, -1.000000000000000000 ) ) ;
#204 =( NAMED_UNIT ( * ) PLANE_ANGLE_UNIT ( ) SI_UNIT ( $, .RADIAN. ) );
#205 = EDGE_LOOP ( 'NONE', ( #20 ) ) ;
#206 = EDGE_LOOP ( 'NONE', ( #52 ) ) ;
#207 =( NAMED_UNIT ( * ) SI_UNIT ( $, .STERADIAN. ) SOLID_ANGLE_UNIT ( ) );
#208 = MECHANICAL_DESIGN_GEOMETRIC_PRESENTATION_REPRESENTATION (  '', ( #105 ), #180 ) ;
#209 = MECHANICAL_DESIGN_GEOMETRIC_PRESENTATION_REPRESENTATION (  '', ( #199 ), #58 ) ;
#210 = PRESENTATION_STYLE_ASSIGNMENT (( #82 ) ) ;
#211 = MANIFOLD_SOLID_BREP ( 'ºÐÇÒ2[1]', #198 ) ;
#212 = FACE_BOUND ( 'NONE', #12, .T. ) ;
#213 = CARTESIAN_POINT ( 'NONE',  ( 84.92304473782992602, 0.0000000000000000000, 2.600000000000010303 ) ) ;
ENDSEC;
END-ISO-10303-21;
