ISO-10303-21;
HEADER;
FILE_DESCRIPTION (( 'STEP AP214' ),
    '1' );
FILE_NAME ('03-1659.STEP',
    '2021-10-01T05:30:42',
    ( 'USER' ),
    ( '' ),
    'SwSTEP 2.0',
    'SolidWorks 2018',
    '' );
FILE_SCHEMA (( 'AUTOMOTIVE_DESIGN' ));
ENDSEC;

DATA;
#1 = CARTESIAN_POINT ( 'NONE',  ( 33.99999999999999289, 0.0000000000000000000, 0.0000000000000000000 ) ) ;
#2 =( LENGTH_UNIT ( ) NAMED_UNIT ( * ) SI_UNIT ( .MILLI., .METRE. ) );
#3 = SURFACE_STYLE_FILL_AREA ( #213 ) ;
#4 =( NAMED_UNIT ( * ) PLANE_ANGLE_UNIT ( ) SI_UNIT ( $, .RADIAN. ) );
#5 = CARTESIAN_POINT ( 'NONE',  ( -1.622657008870242981E-16, 2.649999999999999467, 0.0000000000000000000 ) ) ;
#6 =( GEOMETRIC_REPRESENTATION_CONTEXT ( 3 ) GLOBAL_UNCERTAINTY_ASSIGNED_CONTEXT ( ( #193 ) ) GLOBAL_UNIT_ASSIGNED_CONTEXT ( ( #210, #184, #124 ) ) REPRESENTATION_CONTEXT ( 'NONE', 'WORKASPACE' ) );
#7 = FACE_OUTER_BOUND ( 'NONE', #119, .T. ) ;
#8 = SHAPE_DEFINITION_REPRESENTATION ( #87, #20 ) ;
#9 = UNCERTAINTY_MEASURE_WITH_UNIT (LENGTH_MEASURE( 1.000000000000000082E-05 ), #2, 'distance_accuracy_value', 'NONE');
#10 = ADVANCED_FACE ( 'NONE', ( #170 ), #96, .F. ) ;
#11 = PRODUCT_CONTEXT ( 'NONE', #13, 'mechanical' ) ;
#12 = VERTEX_POINT ( 'NONE', #22 ) ;
#13 = APPLICATION_CONTEXT ( 'automotive_design' ) ;
#14 = DIRECTION ( 'NONE',  ( 1.000000000000000000, 0.0000000000000000000, 0.0000000000000000000 ) ) ;
#15 = SURFACE_STYLE_USAGE ( .BOTH. , #132 ) ;
#16 = SURFACE_STYLE_FILL_AREA ( #61 ) ;
#17 = FACE_OUTER_BOUND ( 'NONE', #112, .T. ) ;
#18 = CONICAL_SURFACE ( 'NONE', #58, 2.119999999999989893, 0.7853981633974536081 ) ;
#19 = CARTESIAN_POINT ( 'NONE',  ( -1.622657008870242981E-16, 0.0000000000000000000, 0.0000000000000000000 ) ) ;
#20 = ADVANCED_BREP_SHAPE_REPRESENTATION ( '03-1659', ( #68, #110, #177 ), #51 ) ;
#21 = PRESENTATION_LAYER_ASSIGNMENT (  '', '', ( #212 ) ) ;
#22 = CARTESIAN_POINT ( 'NONE',  ( -1.622657008870242981E-16, 0.0000000000000000000, -2.119999999999989893 ) ) ;
#23 = VERTEX_POINT ( 'NONE', #44 ) ;
#24 = EDGE_LOOP ( 'NONE', ( #116 ) ) ;
#25 = PRESENTATION_LAYER_ASSIGNMENT (  '', '', ( #108 ) ) ;
#26 = DIRECTION ( 'NONE',  ( 1.000000000000000000, 0.0000000000000000000, 0.0000000000000000000 ) ) ;
#27 = CYLINDRICAL_SURFACE ( 'NONE', #187, 2.650000000000004796 ) ;
#28 = CARTESIAN_POINT ( 'NONE',  ( 0.5300000000000091305, 0.0000000000000000000, -2.650000000000004796 ) ) ;
#29 = ORIENTED_EDGE ( 'NONE', *, *, #169, .T. ) ;
#30 = VERTEX_POINT ( 'NONE', #28 ) ;
#31 = FILL_AREA_STYLE ('',( #77 ) ) ;
#32 = CARTESIAN_POINT ( 'NONE',  ( 0.0000000000000000000, 0.0000000000000000000, 0.0000000000000000000 ) ) ;
#33 = APPLICATION_PROTOCOL_DEFINITION ( 'draft international standard', 'automotive_design', 1998, #13 ) ;
#34 = FILL_AREA_STYLE ('',( #205 ) ) ;
#35 = UNCERTAINTY_MEASURE_WITH_UNIT (LENGTH_MEASURE( 1.000000000000000082E-05 ), #127, 'distance_accuracy_value', 'NONE');
#36 = AXIS2_PLACEMENT_3D ( 'NONE', #88, #206, #143 ) ;
#37 =( NAMED_UNIT ( * ) SI_UNIT ( $, .STERADIAN. ) SOLID_ANGLE_UNIT ( ) );
#38 = DIRECTION ( 'NONE',  ( -1.000000000000000000, -0.0000000000000000000, -0.0000000000000000000 ) ) ;
#39 = MECHANICAL_DESIGN_GEOMETRIC_PRESENTATION_REPRESENTATION (  '', ( #212 ), #181 ) ;
#40 = CARTESIAN_POINT ( 'NONE',  ( -1.622657008870242981E-16, 0.0000000000000000000, 0.0000000000000000000 ) ) ;
#41 = PRESENTATION_LAYER_ASSIGNMENT (  '', '', ( #139 ) ) ;
#42 = DIRECTION ( 'NONE',  ( 1.000000000000000000, 0.0000000000000000000, 0.0000000000000000000 ) ) ;
#43 = SURFACE_STYLE_USAGE ( .BOTH. , #150 ) ;
#44 = CARTESIAN_POINT ( 'NONE',  ( 84.90233405971127922, 0.0000000000000000000, 2.650000000000010569 ) ) ;
#45 = PRESENTATION_STYLE_ASSIGNMENT (( #78 ) ) ;
#46 = AXIS2_PLACEMENT_3D ( 'NONE', #157, #204, #99 ) ;
#47 = DIRECTION ( 'NONE',  ( 0.0000000000000000000, 0.0000000000000000000, 1.000000000000000000 ) ) ;
#48 = CIRCLE ( 'NONE', #162, 2.119999999999989893 ) ;
#49 = DIRECTION ( 'NONE',  ( 0.0000000000000000000, 0.0000000000000000000, 1.000000000000000000 ) ) ;
#50 = CIRCLE ( 'NONE', #175, 2.650000000000010569 ) ;
#51 =( GEOMETRIC_REPRESENTATION_CONTEXT ( 3 ) GLOBAL_UNCERTAINTY_ASSIGNED_CONTEXT ( ( #121 ) ) GLOBAL_UNIT_ASSIGNED_CONTEXT ( ( #101, #183, #168 ) ) REPRESENTATION_CONTEXT ( 'NONE', 'WORKASPACE' ) );
#52 = PLANE ( 'NONE',  #164 ) ;
#53 = PRESENTATION_STYLE_ASSIGNMENT (( #15 ) ) ;
#54 = DIRECTION ( 'NONE',  ( -1.000000000000000000, -0.0000000000000000000, -0.0000000000000000000 ) ) ;
#55 = EDGE_LOOP ( 'NONE', ( #29 ) ) ;
#56 = ADVANCED_FACE ( 'NONE', ( #171 ), #129, .T. ) ;
#57 =( NAMED_UNIT ( * ) PLANE_ANGLE_UNIT ( ) SI_UNIT ( $, .RADIAN. ) );
#58 = AXIS2_PLACEMENT_3D ( 'NONE', #40, #130, #145 ) ;
#59 = EDGE_LOOP ( 'NONE', ( #160 ) ) ;
#60 = PRODUCT ( '03-1659', '03-1659', '', ( #11 ) ) ;
#61 = FILL_AREA_STYLE ('',( #82 ) ) ;
#62 = ORIENTED_EDGE ( 'NONE', *, *, #134, .T. ) ;
#63 = CARTESIAN_POINT ( 'NONE',  ( 33.99999999999999289, 0.0000000000000000000, -2.650000000000004796 ) ) ;
#64 = VERTEX_POINT ( 'NONE', #185 ) ;
#65 = PRESENTATION_LAYER_ASSIGNMENT (  '', '', ( #191 ) ) ;
#66 = CIRCLE ( 'NONE', #198, 2.650000000000004796 ) ;
#67 = FACE_OUTER_BOUND ( 'NONE', #199, .T. ) ;
#68 = MANIFOLD_SOLID_BREP ( 'ºÐÇÒ2[1]', #180 ) ;
#69 =( GEOMETRIC_REPRESENTATION_CONTEXT ( 3 ) GLOBAL_UNCERTAINTY_ASSIGNED_CONTEXT ( ( #35 ) ) GLOBAL_UNIT_ASSIGNED_CONTEXT ( ( #127, #4, #192 ) ) REPRESENTATION_CONTEXT ( 'NONE', 'WORKASPACE' ) );
#70 = EDGE_LOOP ( 'NONE', ( #62 ) ) ;
#71 = DIRECTION ( 'NONE',  ( 1.000000000000000000, 0.0000000000000000000, 0.0000000000000000000 ) ) ;
#72 = AXIS2_PLACEMENT_3D ( 'NONE', #32, #202, #86 ) ;
#73 = FACE_BOUND ( 'NONE', #95, .T. ) ;
#74 = ADVANCED_FACE ( 'NONE', ( #114, #17 ), #102, .T. ) ;
#75 = DIRECTION ( 'NONE',  ( -1.000000000000000000, -0.0000000000000000000, -0.0000000000000000000 ) ) ;
#76 = FACE_OUTER_BOUND ( 'NONE', #70, .T. ) ;
#77 = FILL_AREA_STYLE_COLOUR ( '', #105 ) ;
#78 = SURFACE_STYLE_USAGE ( .BOTH. , #97 ) ;
#79 = EDGE_LOOP ( 'NONE', ( #89 ) ) ;
#80 = FACE_OUTER_BOUND ( 'NONE', #55, .T. ) ;
#81 = MECHANICAL_DESIGN_GEOMETRIC_PRESENTATION_REPRESENTATION (  '', ( #191 ), #6 ) ;
#82 = FILL_AREA_STYLE_COLOUR ( '', #161 ) ;
#83 = FILL_AREA_STYLE_COLOUR ( '', #203 ) ;
#84 = PRESENTATION_STYLE_ASSIGNMENT (( #188 ) ) ;
#85 = AXIS2_PLACEMENT_3D ( 'NONE', #190, #138, #151 ) ;
#86 = DIRECTION ( 'NONE',  ( 0.0000000000000000000, 0.0000000000000000000, 1.000000000000000000 ) ) ;
#87 = PRODUCT_DEFINITION_SHAPE ( 'NONE', 'NONE',  #189 ) ;
#88 = CARTESIAN_POINT ( 'NONE',  ( 33.99999999999999289, 0.0000000000000000000, 0.0000000000000000000 ) ) ;
#89 = ORIENTED_EDGE ( 'NONE', *, *, #146, .T. ) ;
#90 = DIRECTION ( 'NONE',  ( 1.000000000000000000, 0.0000000000000000000, 0.0000000000000000000 ) ) ;
#91 = ADVANCED_FACE ( 'NONE', ( #76 ), #153, .T. ) ;
#92 = PRESENTATION_LAYER_ASSIGNMENT (  '', '', ( #104 ) ) ;
#93 = UNCERTAINTY_MEASURE_WITH_UNIT (LENGTH_MEASURE( 1.000000000000000082E-05 ), #182, 'distance_accuracy_value', 'NONE');
#94 = SURFACE_SIDE_STYLE ('',( #16 ) ) ;
#95 = EDGE_LOOP ( 'NONE', ( #111 ) ) ;
#96 = PLANE ( 'NONE',  #200 ) ;
#97 = SURFACE_SIDE_STYLE ('',( #3 ) ) ;
#98 = PRODUCT_DEFINITION_FORMATION_WITH_SPECIFIED_SOURCE ( 'ANY', '', #60, .NOT_KNOWN. ) ;
#99 = DIRECTION ( 'NONE',  ( 0.0000000000000000000, 0.0000000000000000000, 1.000000000000000000 ) ) ;
#100 = ORIENTED_EDGE ( 'NONE', *, *, #134, .F. ) ;
#101 =( LENGTH_UNIT ( ) NAMED_UNIT ( * ) SI_UNIT ( .MILLI., .METRE. ) );
#102 = CYLINDRICAL_SURFACE ( 'NONE', #72, 2.650000000000004796 ) ;
#103 = COLOUR_RGB ( '',0.7921568627450980005, 0.8196078431372548767, 0.9333333333333333481 ) ;
#104 = STYLED_ITEM ( 'NONE', ( #45 ), #20 ) ;
#105 = COLOUR_RGB ( '',1.000000000000000000, 1.000000000000000000, 0.0000000000000000000 ) ;
#106 = CARTESIAN_POINT ( 'NONE',  ( 0.0000000000000000000, 0.0000000000000000000, 0.0000000000000000000 ) ) ;
#107 = DIRECTION ( 'NONE',  ( 0.0000000000000000000, 0.0000000000000000000, -1.000000000000000000 ) ) ;
#108 = STYLED_ITEM ( 'NONE', ( #142 ), #68 ) ;
#109 = FACE_OUTER_BOUND ( 'NONE', #79, .T. ) ;
#110 = MANIFOLD_SOLID_BREP ( 'ºÐÇÒ2[2]', #117 ) ;
#111 = ORIENTED_EDGE ( 'NONE', *, *, #125, .F. ) ;
#112 = EDGE_LOOP ( 'NONE', ( #100 ) ) ;
#113 = APPLICATION_CONTEXT ( 'automotive_design' ) ;
#114 = FACE_OUTER_BOUND ( 'NONE', #59, .T. ) ;
#115 = FILL_AREA_STYLE_COLOUR ( '', #144 ) ;
#116 = ORIENTED_EDGE ( 'NONE', *, *, #169, .F. ) ;
#117 = CLOSED_SHELL ( 'NONE', ( #10, #147, #56 ) ) ;
#118 = PRESENTATION_STYLE_ASSIGNMENT (( #123 ) ) ;
#119 = EDGE_LOOP ( 'NONE', ( #178 ) ) ;
#120 = MECHANICAL_DESIGN_GEOMETRIC_PRESENTATION_REPRESENTATION (  '', ( #139 ), #69 ) ;
#121 = UNCERTAINTY_MEASURE_WITH_UNIT (LENGTH_MEASURE( 1.000000000000000082E-05 ), #101, 'distance_accuracy_value', 'NONE');
#122 = SURFACE_STYLE_FILL_AREA ( #34 ) ;
#123 = SURFACE_STYLE_USAGE ( .BOTH. , #94 ) ;
#124 =( NAMED_UNIT ( * ) SI_UNIT ( $, .STERADIAN. ) SOLID_ANGLE_UNIT ( ) );
#125 = EDGE_CURVE ( 'NONE', #12, #12, #48, .T. ) ;
#126 = SURFACE_SIDE_STYLE ('',( #131 ) ) ;
#127 =( LENGTH_UNIT ( ) NAMED_UNIT ( * ) SI_UNIT ( .MILLI., .METRE. ) );
#128 = CARTESIAN_POINT ( 'NONE',  ( 33.99999999999999289, 0.0000000000000000000, 0.0000000000000000000 ) ) ;
#129 = CONICAL_SURFACE ( 'NONE', #46, 2414.213562373065542, 1.178097245096168200 ) ;
#130 = DIRECTION ( 'NONE',  ( 1.000000000000000000, 0.0000000000000000000, 0.0000000000000000000 ) ) ;
#131 = SURFACE_STYLE_FILL_AREA ( #201 ) ;
#132 = SURFACE_SIDE_STYLE ('',( #136 ) ) ;
#133 = MECHANICAL_DESIGN_GEOMETRIC_PRESENTATION_REPRESENTATION (  '', ( #104 ), #173 ) ;
#134 = EDGE_CURVE ( 'NONE', #196, #196, #141, .T. ) ;
#135 = CARTESIAN_POINT ( 'NONE',  ( 0.0000000000000000000, 0.0000000000000000000, 0.0000000000000000000 ) ) ;
#136 = SURFACE_STYLE_FILL_AREA ( #31 ) ;
#137 =( NAMED_UNIT ( * ) PLANE_ANGLE_UNIT ( ) SI_UNIT ( $, .RADIAN. ) );
#138 = DIRECTION ( 'NONE',  ( 1.000000000000000000, 0.0000000000000000000, 0.0000000000000000000 ) ) ;
#139 = STYLED_ITEM ( 'NONE', ( #53 ), #147 ) ;
#140 = PRODUCT_RELATED_PRODUCT_CATEGORY ( 'part', '', ( #60 ) ) ;
#141 = CIRCLE ( 'NONE', #36, 2.650000000000004796 ) ;
#142 = PRESENTATION_STYLE_ASSIGNMENT (( #43 ) ) ;
#143 = DIRECTION ( 'NONE',  ( 0.0000000000000000000, 0.0000000000000000000, -1.000000000000000000 ) ) ;
#144 = COLOUR_RGB ( '',0.7921568627450980005, 0.8196078431372548767, 0.9333333333333333481 ) ;
#145 = DIRECTION ( 'NONE',  ( 0.0000000000000000000, 0.0000000000000000000, -1.000000000000000000 ) ) ;
#146 = EDGE_CURVE ( 'NONE', #64, #64, #154, .T. ) ;
#147 = ADVANCED_FACE ( 'NONE', ( #109, #80 ), #27, .T. ) ;
#148 =( NAMED_UNIT ( * ) SI_UNIT ( $, .STERADIAN. ) SOLID_ANGLE_UNIT ( ) );
#149 = DIRECTION ( 'NONE',  ( 0.0000000000000000000, 0.0000000000000000000, 1.000000000000000000 ) ) ;
#150 = SURFACE_SIDE_STYLE ('',( #122 ) ) ;
#151 = DIRECTION ( 'NONE',  ( 0.0000000000000000000, 0.0000000000000000000, -1.000000000000000000 ) ) ;
#152 = ORIENTED_EDGE ( 'NONE', *, *, #125, .T. ) ;
#153 = PLANE ( 'NONE',  #85 ) ;
#154 = CIRCLE ( 'NONE', #174, 2.650000000000004796 ) ;
#155 = UNCERTAINTY_MEASURE_WITH_UNIT (LENGTH_MEASURE( 1.000000000000000082E-05 ), #156, 'distance_accuracy_value', 'NONE');
#156 =( LENGTH_UNIT ( ) NAMED_UNIT ( * ) SI_UNIT ( .MILLI., .METRE. ) );
#157 = CARTESIAN_POINT ( 'NONE',  ( -914.0000000000000000, 0.0000000000000000000, 0.0000000000000000000 ) ) ;
#158 = EDGE_CURVE ( 'NONE', #30, #30, #66, .T. ) ;
#159 =( GEOMETRIC_REPRESENTATION_CONTEXT ( 3 ) GLOBAL_UNCERTAINTY_ASSIGNED_CONTEXT ( ( #9 ) ) GLOBAL_UNIT_ASSIGNED_CONTEXT ( ( #2, #166, #148 ) ) REPRESENTATION_CONTEXT ( 'NONE', 'WORKASPACE' ) );
#160 = ORIENTED_EDGE ( 'NONE', *, *, #158, .T. ) ;
#161 = COLOUR_RGB ( '',0.7921568627450980005, 0.8196078431372548767, 0.9333333333333333481 ) ;
#162 = AXIS2_PLACEMENT_3D ( 'NONE', #19, #75, #194 ) ;
#163 = CARTESIAN_POINT ( 'NONE',  ( 84.90233405971127922, 0.0000000000000000000, 0.0000000000000000000 ) ) ;
#164 = AXIS2_PLACEMENT_3D ( 'NONE', #5, #90, #107 ) ;
#165 = ADVANCED_FACE ( 'NONE', ( #67 ), #52, .F. ) ;
#166 =( NAMED_UNIT ( * ) PLANE_ANGLE_UNIT ( ) SI_UNIT ( $, .RADIAN. ) );
#167 =( NAMED_UNIT ( * ) SI_UNIT ( $, .STERADIAN. ) SOLID_ANGLE_UNIT ( ) );
#168 =( NAMED_UNIT ( * ) SI_UNIT ( $, .STERADIAN. ) SOLID_ANGLE_UNIT ( ) );
#169 = EDGE_CURVE ( 'NONE', #23, #23, #50, .T. ) ;
#170 = FACE_OUTER_BOUND ( 'NONE', #186, .T. ) ;
#171 = FACE_OUTER_BOUND ( 'NONE', #24, .T. ) ;
#172 = DIRECTION ( 'NONE',  ( 0.0000000000000000000, 0.0000000000000000000, -1.000000000000000000 ) ) ;
#173 =( GEOMETRIC_REPRESENTATION_CONTEXT ( 3 ) GLOBAL_UNCERTAINTY_ASSIGNED_CONTEXT ( ( #93 ) ) GLOBAL_UNIT_ASSIGNED_CONTEXT ( ( #182, #57, #167 ) ) REPRESENTATION_CONTEXT ( 'NONE', 'WORKASPACE' ) );
#174 = AXIS2_PLACEMENT_3D ( 'NONE', #128, #26, #207 ) ;
#175 = AXIS2_PLACEMENT_3D ( 'NONE', #163, #54, #49 ) ;
#176 = ORIENTED_EDGE ( 'NONE', *, *, #146, .F. ) ;
#177 = AXIS2_PLACEMENT_3D ( 'NONE', #135, #149, #42 ) ;
#178 = ORIENTED_EDGE ( 'NONE', *, *, #158, .F. ) ;
#179 = CARTESIAN_POINT ( 'NONE',  ( 0.5300000000000091305, 0.0000000000000000000, 0.0000000000000000000 ) ) ;
#180 = CLOSED_SHELL ( 'NONE', ( #74, #165, #209, #91 ) ) ;
#181 =( GEOMETRIC_REPRESENTATION_CONTEXT ( 3 ) GLOBAL_UNCERTAINTY_ASSIGNED_CONTEXT ( ( #155 ) ) GLOBAL_UNIT_ASSIGNED_CONTEXT ( ( #156, #137, #37 ) ) REPRESENTATION_CONTEXT ( 'NONE', 'WORKASPACE' ) );
#182 =( LENGTH_UNIT ( ) NAMED_UNIT ( * ) SI_UNIT ( .MILLI., .METRE. ) );
#183 =( NAMED_UNIT ( * ) PLANE_ANGLE_UNIT ( ) SI_UNIT ( $, .RADIAN. ) );
#184 =( NAMED_UNIT ( * ) PLANE_ANGLE_UNIT ( ) SI_UNIT ( $, .RADIAN. ) );
#185 = CARTESIAN_POINT ( 'NONE',  ( 33.99999999999999289, 0.0000000000000000000, -2.650000000000004796 ) ) ;
#186 = EDGE_LOOP ( 'NONE', ( #176 ) ) ;
#187 = AXIS2_PLACEMENT_3D ( 'NONE', #106, #38, #47 ) ;
#188 = SURFACE_STYLE_USAGE ( .BOTH. , #126 ) ;
#189 = PRODUCT_DEFINITION ( 'UNKNOWN', '', #98, #208 ) ;
#190 = CARTESIAN_POINT ( 'NONE',  ( 33.99999999999999289, 0.0000000000000000000, 0.0000000000000000000 ) ) ;
#191 = STYLED_ITEM ( 'NONE', ( #84 ), #56 ) ;
#192 =( NAMED_UNIT ( * ) SI_UNIT ( $, .STERADIAN. ) SOLID_ANGLE_UNIT ( ) );
#193 = UNCERTAINTY_MEASURE_WITH_UNIT (LENGTH_MEASURE( 1.000000000000000082E-05 ), #210, 'distance_accuracy_value', 'NONE');
#194 = DIRECTION ( 'NONE',  ( 0.0000000000000000000, 0.0000000000000000000, -1.000000000000000000 ) ) ;
#195 = MECHANICAL_DESIGN_GEOMETRIC_PRESENTATION_REPRESENTATION (  '', ( #108 ), #159 ) ;
#196 = VERTEX_POINT ( 'NONE', #63 ) ;
#197 = DIRECTION ( 'NONE',  ( 0.0000000000000000000, 0.0000000000000000000, -1.000000000000000000 ) ) ;
#198 = AXIS2_PLACEMENT_3D ( 'NONE', #179, #71, #197 ) ;
#199 = EDGE_LOOP ( 'NONE', ( #152 ) ) ;
#200 = AXIS2_PLACEMENT_3D ( 'NONE', #1, #14, #172 ) ;
#201 = FILL_AREA_STYLE ('',( #83 ) ) ;
#202 = DIRECTION ( 'NONE',  ( -1.000000000000000000, -0.0000000000000000000, -0.0000000000000000000 ) ) ;
#203 = COLOUR_RGB ( '',1.000000000000000000, 1.000000000000000000, 0.0000000000000000000 ) ;
#204 = DIRECTION ( 'NONE',  ( -1.000000000000000000, -0.0000000000000000000, -0.0000000000000000000 ) ) ;
#205 = FILL_AREA_STYLE_COLOUR ( '', #103 ) ;
#206 = DIRECTION ( 'NONE',  ( 1.000000000000000000, 0.0000000000000000000, 0.0000000000000000000 ) ) ;
#207 = DIRECTION ( 'NONE',  ( 0.0000000000000000000, 0.0000000000000000000, -1.000000000000000000 ) ) ;
#208 = PRODUCT_DEFINITION_CONTEXT ( 'detailed design', #113, 'design' ) ;
#209 = ADVANCED_FACE ( 'NONE', ( #7, #73 ), #18, .T. ) ;
#210 =( LENGTH_UNIT ( ) NAMED_UNIT ( * ) SI_UNIT ( .MILLI., .METRE. ) );
#211 = APPLICATION_PROTOCOL_DEFINITION ( 'draft international standard', 'automotive_design', 1998, #113 ) ;
#212 = STYLED_ITEM ( 'NONE', ( #118 ), #110 ) ;
#213 = FILL_AREA_STYLE ('',( #115 ) ) ;
ENDSEC;
END-ISO-10303-21;
