ISO-10303-21;
HEADER;
FILE_DESCRIPTION (( 'STEP AP214' ),
    '1' );
FILE_NAME ('03-1660.STEP',
    '2021-10-01T05:31:01',
    ( 'USER' ),
    ( '' ),
    'SwSTEP 2.0',
    'SolidWorks 2018',
    '' );
FILE_SCHEMA (( 'AUTOMOTIVE_DESIGN' ));
ENDSEC;

DATA;
#1 =( NAMED_UNIT ( * ) PLANE_ANGLE_UNIT ( ) SI_UNIT ( $, .RADIAN. ) );
#2 =( NAMED_UNIT ( * ) PLANE_ANGLE_UNIT ( ) SI_UNIT ( $, .RADIAN. ) );
#3 = FILL_AREA_STYLE ('',( #66 ) ) ;
#4 =( GEOMETRIC_REPRESENTATION_CONTEXT ( 3 ) GLOBAL_UNCERTAINTY_ASSIGNED_CONTEXT ( ( #162 ) ) GLOBAL_UNIT_ASSIGNED_CONTEXT ( ( #92, #190, #178 ) ) REPRESENTATION_CONTEXT ( 'NONE', 'WORKASPACE' ) );
#5 = DIRECTION ( 'NONE',  ( 1.000000000000000000, 0.0000000000000000000, 0.0000000000000000000 ) ) ;
#6 =( NAMED_UNIT ( * ) SI_UNIT ( $, .STERADIAN. ) SOLID_ANGLE_UNIT ( ) );
#7 = ADVANCED_FACE ( 'NONE', ( #187, #179 ), #57, .T. ) ;
#8 = PRODUCT_CONTEXT ( 'NONE', #56, 'mechanical' ) ;
#9 = UNCERTAINTY_MEASURE_WITH_UNIT (LENGTH_MEASURE( 1.000000000000000082E-05 ), #26, 'distance_accuracy_value', 'NONE');
#10 = DIRECTION ( 'NONE',  ( -1.000000000000000000, -0.0000000000000000000, -0.0000000000000000000 ) ) ;
#11 = AXIS2_PLACEMENT_3D ( 'NONE', #168, #85, #74 ) ;
#12 = FILL_AREA_STYLE_COLOUR ( '', #15 ) ;
#13 = EDGE_LOOP ( 'NONE', ( #139 ) ) ;
#14 = DIRECTION ( 'NONE',  ( 0.0000000000000000000, 0.0000000000000000000, -1.000000000000000000 ) ) ;
#15 = COLOUR_RGB ( '',1.000000000000000000, 1.000000000000000000, 0.0000000000000000000 ) ;
#16 = AXIS2_PLACEMENT_3D ( 'NONE', #87, #186, #193 ) ;
#17 = PRODUCT_DEFINITION_SHAPE ( 'NONE', 'NONE',  #68 ) ;
#18 =( NAMED_UNIT ( * ) SI_UNIT ( $, .STERADIAN. ) SOLID_ANGLE_UNIT ( ) );
#19 = FACE_OUTER_BOUND ( 'NONE', #81, .T. ) ;
#20 = FACE_OUTER_BOUND ( 'NONE', #175, .T. ) ;
#21 = CYLINDRICAL_SURFACE ( 'NONE', #34, 2.700000000000006395 ) ;
#22 = CIRCLE ( 'NONE', #123, 2.700000000000006395 ) ;
#23 = FACE_OUTER_BOUND ( 'NONE', #206, .T. ) ;
#24 = DIRECTION ( 'NONE',  ( 0.0000000000000000000, 0.0000000000000000000, -1.000000000000000000 ) ) ;
#25 = ADVANCED_FACE ( 'NONE', ( #107, #19 ), #21, .T. ) ;
#26 =( LENGTH_UNIT ( ) NAMED_UNIT ( * ) SI_UNIT ( .MILLI., .METRE. ) );
#27 = DIRECTION ( 'NONE',  ( -1.000000000000000000, -0.0000000000000000000, -0.0000000000000000000 ) ) ;
#28 = COLOUR_RGB ( '',0.7921568627450980005, 0.8196078431372548767, 0.9333333333333333481 ) ;
#29 = SURFACE_STYLE_USAGE ( .BOTH. , #67 ) ;
#30 = FILL_AREA_STYLE ('',( #12 ) ) ;
#31 = SURFACE_STYLE_FILL_AREA ( #3 ) ;
#32 = DIRECTION ( 'NONE',  ( 0.0000000000000000000, 0.0000000000000000000, 1.000000000000000000 ) ) ;
#33 = ORIENTED_EDGE ( 'NONE', *, *, #39, .F. ) ;
#34 = AXIS2_PLACEMENT_3D ( 'NONE', #117, #27, #32 ) ;
#35 = CARTESIAN_POINT ( 'NONE',  ( 36.00000000000000000, 0.0000000000000000000, -2.700000000000006395 ) ) ;
#36 = ORIENTED_EDGE ( 'NONE', *, *, #159, .T. ) ;
#37 = ORIENTED_EDGE ( 'NONE', *, *, #63, .T. ) ;
#38 = DIRECTION ( 'NONE',  ( 1.000000000000000000, 0.0000000000000000000, 0.0000000000000000000 ) ) ;
#39 = EDGE_CURVE ( 'NONE', #62, #62, #157, .T. ) ;
#40 = APPLICATION_CONTEXT ( 'automotive_design' ) ;
#41 = ORIENTED_EDGE ( 'NONE', *, *, #49, .F. ) ;
#42 = PRODUCT_RELATED_PRODUCT_CATEGORY ( 'part', '', ( #55 ) ) ;
#43 = ADVANCED_FACE ( 'NONE', ( #23 ), #213, .F. ) ;
#44 = CARTESIAN_POINT ( 'NONE',  ( 0.0000000000000000000, 0.0000000000000000000, 0.0000000000000000000 ) ) ;
#45 = AXIS2_PLACEMENT_3D ( 'NONE', #44, #10, #212 ) ;
#46 = CARTESIAN_POINT ( 'NONE',  ( 36.00000000000000000, 0.0000000000000000000, 0.0000000000000000000 ) ) ;
#47 = DIRECTION ( 'NONE',  ( 0.0000000000000000000, 0.0000000000000000000, -1.000000000000000000 ) ) ;
#48 = CARTESIAN_POINT ( 'NONE',  ( 0.5400000000000048095, 0.0000000000000000000, 0.0000000000000000000 ) ) ;
#49 = EDGE_CURVE ( 'NONE', #210, #210, #160, .T. ) ;
#50 = FACE_OUTER_BOUND ( 'NONE', #121, .T. ) ;
#51 = PRODUCT_DEFINITION_FORMATION_WITH_SPECIFIED_SOURCE ( 'ANY', '', #55, .NOT_KNOWN. ) ;
#52 = CIRCLE ( 'NONE', #188, 2.700000000000006395 ) ;
#53 = COLOUR_RGB ( '',0.7921568627450980005, 0.8196078431372548767, 0.9333333333333333481 ) ;
#54 = SURFACE_STYLE_USAGE ( .BOTH. , #94 ) ;
#55 = PRODUCT ( '03-1660', '03-1660', '', ( #8 ) ) ;
#56 = APPLICATION_CONTEXT ( 'automotive_design' ) ;
#57 = CYLINDRICAL_SURFACE ( 'NONE', #45, 2.700000000000006395 ) ;
#58 =( NAMED_UNIT ( * ) PLANE_ANGLE_UNIT ( ) SI_UNIT ( $, .RADIAN. ) );
#59 = VERTEX_POINT ( 'NONE', #69 ) ;
#60 = SURFACE_SIDE_STYLE ('',( #146 ) ) ;
#61 = EDGE_LOOP ( 'NONE', ( #41 ) ) ;
#62 = VERTEX_POINT ( 'NONE', #138 ) ;
#63 = EDGE_CURVE ( 'NONE', #59, #59, #22, .T. ) ;
#64 =( LENGTH_UNIT ( ) NAMED_UNIT ( * ) SI_UNIT ( .MILLI., .METRE. ) );
#65 = ADVANCED_FACE ( 'NONE', ( #203 ), #104, .T. ) ;
#66 = FILL_AREA_STYLE_COLOUR ( '', #28 ) ;
#67 = SURFACE_SIDE_STYLE ('',( #31 ) ) ;
#68 = PRODUCT_DEFINITION ( 'UNKNOWN', '', #51, #145 ) ;
#69 = CARTESIAN_POINT ( 'NONE',  ( 36.00000000000000000, 0.0000000000000000000, -2.700000000000006395 ) ) ;
#70 = MECHANICAL_DESIGN_GEOMETRIC_PRESENTATION_REPRESENTATION (  '', ( #109 ), #149 ) ;
#71 = VERTEX_POINT ( 'NONE', #35 ) ;
#72 = DIRECTION ( 'NONE',  ( 0.0000000000000000000, 0.0000000000000000000, 1.000000000000000000 ) ) ;
#73 = VERTEX_POINT ( 'NONE', #204 ) ;
#74 = DIRECTION ( 'NONE',  ( 0.0000000000000000000, 0.0000000000000000000, -1.000000000000000000 ) ) ;
#75 = UNCERTAINTY_MEASURE_WITH_UNIT (LENGTH_MEASURE( 1.000000000000000082E-05 ), #89, 'distance_accuracy_value', 'NONE');
#76 = CARTESIAN_POINT ( 'NONE',  ( 36.00000000000000000, 0.0000000000000000000, 0.0000000000000000000 ) ) ;
#77 = CARTESIAN_POINT ( 'NONE',  ( 0.0000000000000000000, 0.0000000000000000000, 0.0000000000000000000 ) ) ;
#78 = COLOUR_RGB ( '',0.7921568627450980005, 0.8196078431372548767, 0.9333333333333333481 ) ;
#79 = AXIS2_PLACEMENT_3D ( 'NONE', #105, #198, #125 ) ;
#80 = AXIS2_PLACEMENT_3D ( 'NONE', #77, #72, #5 ) ;
#81 = EDGE_LOOP ( 'NONE', ( #130 ) ) ;
#82 = STYLED_ITEM ( 'NONE', ( #98 ), #115 ) ;
#83 = ADVANCED_FACE ( 'NONE', ( #101 ), #177, .F. ) ;
#84 = PLANE ( 'NONE',  #11 ) ;
#85 = DIRECTION ( 'NONE',  ( 1.000000000000000000, 0.0000000000000000000, 0.0000000000000000000 ) ) ;
#86 = ORIENTED_EDGE ( 'NONE', *, *, #159, .F. ) ;
#87 = CARTESIAN_POINT ( 'NONE',  ( -1.653273178848927360E-16, 0.0000000000000000000, 0.0000000000000000000 ) ) ;
#88 =( LENGTH_UNIT ( ) NAMED_UNIT ( * ) SI_UNIT ( .MILLI., .METRE. ) );
#89 =( LENGTH_UNIT ( ) NAMED_UNIT ( * ) SI_UNIT ( .MILLI., .METRE. ) );
#90 = PRESENTATION_STYLE_ASSIGNMENT (( #129 ) ) ;
#91 = FACE_BOUND ( 'NONE', #122, .T. ) ;
#92 =( LENGTH_UNIT ( ) NAMED_UNIT ( * ) SI_UNIT ( .MILLI., .METRE. ) );
#93 =( GEOMETRIC_REPRESENTATION_CONTEXT ( 3 ) GLOBAL_UNCERTAINTY_ASSIGNED_CONTEXT ( ( #158 ) ) GLOBAL_UNIT_ASSIGNED_CONTEXT ( ( #153, #2, #6 ) ) REPRESENTATION_CONTEXT ( 'NONE', 'WORKASPACE' ) );
#94 = SURFACE_SIDE_STYLE ('',( #100 ) ) ;
#95 = SHAPE_DEFINITION_REPRESENTATION ( #17, #147 ) ;
#96 = FILL_AREA_STYLE ('',( #181 ) ) ;
#97 = DIRECTION ( 'NONE',  ( 0.0000000000000000000, 0.0000000000000000000, -1.000000000000000000 ) ) ;
#98 = PRESENTATION_STYLE_ASSIGNMENT (( #29 ) ) ;
#99 = ADVANCED_FACE ( 'NONE', ( #20 ), #84, .T. ) ;
#100 = SURFACE_STYLE_FILL_AREA ( #96 ) ;
#101 = FACE_OUTER_BOUND ( 'NONE', #13, .T. ) ;
#102 = SURFACE_SIDE_STYLE ('',( #176 ) ) ;
#103 =( NAMED_UNIT ( * ) SI_UNIT ( $, .STERADIAN. ) SOLID_ANGLE_UNIT ( ) );
#104 = CONICAL_SURFACE ( 'NONE', #201, 2414.213562373073728, 1.178097245096169310 ) ;
#105 = CARTESIAN_POINT ( 'NONE',  ( 91.88162338159263243, 0.0000000000000000000, 0.0000000000000000000 ) ) ;
#106 = FILL_AREA_STYLE ('',( #182 ) ) ;
#107 = FACE_OUTER_BOUND ( 'NONE', #118, .T. ) ;
#108 = AXIS2_PLACEMENT_3D ( 'NONE', #135, #164, #200 ) ;
#109 = STYLED_ITEM ( 'NONE', ( #90 ), #25 ) ;
#110 = APPLICATION_PROTOCOL_DEFINITION ( 'draft international standard', 'automotive_design', 1998, #56 ) ;
#111 = APPLICATION_PROTOCOL_DEFINITION ( 'draft international standard', 'automotive_design', 1998, #40 ) ;
#112 = DIRECTION ( 'NONE',  ( 0.0000000000000000000, 0.0000000000000000000, 1.000000000000000000 ) ) ;
#113 =( GEOMETRIC_REPRESENTATION_CONTEXT ( 3 ) GLOBAL_UNCERTAINTY_ASSIGNED_CONTEXT ( ( #192 ) ) GLOBAL_UNIT_ASSIGNED_CONTEXT ( ( #88, #194, #124 ) ) REPRESENTATION_CONTEXT ( 'NONE', 'WORKASPACE' ) );
#114 = STYLED_ITEM ( 'NONE', ( #199 ), #147 ) ;
#115 = MANIFOLD_SOLID_BREP ( 'ºÐÇÒ2[2]', #209 ) ;
#116 = ADVANCED_FACE ( 'NONE', ( #50, #91 ), #126, .T. ) ;
#117 = CARTESIAN_POINT ( 'NONE',  ( 0.0000000000000000000, 0.0000000000000000000, 0.0000000000000000000 ) ) ;
#118 = EDGE_LOOP ( 'NONE', ( #128 ) ) ;
#119 =( GEOMETRIC_REPRESENTATION_CONTEXT ( 3 ) GLOBAL_UNCERTAINTY_ASSIGNED_CONTEXT ( ( #75 ) ) GLOBAL_UNIT_ASSIGNED_CONTEXT ( ( #89, #1, #18 ) ) REPRESENTATION_CONTEXT ( 'NONE', 'WORKASPACE' ) );
#120 = CLOSED_SHELL ( 'NONE', ( #7, #83, #116, #99 ) ) ;
#121 = EDGE_LOOP ( 'NONE', ( #86 ) ) ;
#122 = EDGE_LOOP ( 'NONE', ( #33 ) ) ;
#123 = AXIS2_PLACEMENT_3D ( 'NONE', #46, #156, #14 ) ;
#124 =( NAMED_UNIT ( * ) SI_UNIT ( $, .STERADIAN. ) SOLID_ANGLE_UNIT ( ) );
#125 = DIRECTION ( 'NONE',  ( 0.0000000000000000000, 0.0000000000000000000, 1.000000000000000000 ) ) ;
#126 = CONICAL_SURFACE ( 'NONE', #108, 2.159999999999995257, 0.7853981633974538301 ) ;
#127 = MECHANICAL_DESIGN_GEOMETRIC_PRESENTATION_REPRESENTATION (  '', ( #154 ), #119 ) ;
#128 = ORIENTED_EDGE ( 'NONE', *, *, #144, .T. ) ;
#129 = SURFACE_STYLE_USAGE ( .BOTH. , #102 ) ;
#130 = ORIENTED_EDGE ( 'NONE', *, *, #49, .T. ) ;
#131 =( NAMED_UNIT ( * ) SI_UNIT ( $, .STERADIAN. ) SOLID_ANGLE_UNIT ( ) );
#132 = DIRECTION ( 'NONE',  ( -1.000000000000000000, -0.0000000000000000000, -0.0000000000000000000 ) ) ;
#133 = CARTESIAN_POINT ( 'NONE',  ( -1.653273178848927360E-16, 2.700000000000000622, 0.0000000000000000000 ) ) ;
#134 = PRESENTATION_LAYER_ASSIGNMENT (  '', '', ( #161 ) ) ;
#135 = CARTESIAN_POINT ( 'NONE',  ( -1.653273178848927360E-16, 0.0000000000000000000, 0.0000000000000000000 ) ) ;
#136 = MECHANICAL_DESIGN_GEOMETRIC_PRESENTATION_REPRESENTATION (  '', ( #82 ), #93 ) ;
#137 = PRESENTATION_STYLE_ASSIGNMENT (( #208 ) ) ;
#138 = CARTESIAN_POINT ( 'NONE',  ( -1.653273178848927360E-16, 0.0000000000000000000, -2.159999999999995257 ) ) ;
#139 = ORIENTED_EDGE ( 'NONE', *, *, #39, .T. ) ;
#140 = MANIFOLD_SOLID_BREP ( 'ºÐÇÒ2[1]', #120 ) ;
#141 = PRESENTATION_LAYER_ASSIGNMENT (  '', '', ( #154 ) ) ;
#142 = SURFACE_SIDE_STYLE ('',( #148 ) ) ;
#143 = EDGE_LOOP ( 'NONE', ( #211 ) ) ;
#144 = EDGE_CURVE ( 'NONE', #71, #71, #52, .T. ) ;
#145 = PRODUCT_DEFINITION_CONTEXT ( 'detailed design', #40, 'design' ) ;
#146 = SURFACE_STYLE_FILL_AREA ( #30 ) ;
#147 = ADVANCED_BREP_SHAPE_REPRESENTATION ( '03-1660', ( #140, #115, #80 ), #113 ) ;
#148 = SURFACE_STYLE_FILL_AREA ( #106 ) ;
#149 =( GEOMETRIC_REPRESENTATION_CONTEXT ( 3 ) GLOBAL_UNCERTAINTY_ASSIGNED_CONTEXT ( ( #9 ) ) GLOBAL_UNIT_ASSIGNED_CONTEXT ( ( #26, #185, #131 ) ) REPRESENTATION_CONTEXT ( 'NONE', 'WORKASPACE' ) );
#150 = PRESENTATION_LAYER_ASSIGNMENT (  '', '', ( #114 ) ) ;
#151 = FILL_AREA_STYLE ('',( #197 ) ) ;
#152 = DIRECTION ( 'NONE',  ( 1.000000000000000000, 0.0000000000000000000, 0.0000000000000000000 ) ) ;
#153 =( LENGTH_UNIT ( ) NAMED_UNIT ( * ) SI_UNIT ( .MILLI., .METRE. ) );
#154 = STYLED_ITEM ( 'NONE', ( #196 ), #140 ) ;
#155 = CIRCLE ( 'NONE', #165, 2.700000000000006395 ) ;
#156 = DIRECTION ( 'NONE',  ( 1.000000000000000000, 0.0000000000000000000, 0.0000000000000000000 ) ) ;
#157 = CIRCLE ( 'NONE', #16, 2.159999999999995257 ) ;
#158 = UNCERTAINTY_MEASURE_WITH_UNIT (LENGTH_MEASURE( 1.000000000000000082E-05 ), #153, 'distance_accuracy_value', 'NONE');
#159 = EDGE_CURVE ( 'NONE', #73, #73, #155, .T. ) ;
#160 = CIRCLE ( 'NONE', #79, 2.700000000000011280 ) ;
#161 = STYLED_ITEM ( 'NONE', ( #137 ), #65 ) ;
#162 = UNCERTAINTY_MEASURE_WITH_UNIT (LENGTH_MEASURE( 1.000000000000000082E-05 ), #92, 'distance_accuracy_value', 'NONE');
#163 = DIRECTION ( 'NONE',  ( 1.000000000000000000, 0.0000000000000000000, 0.0000000000000000000 ) ) ;
#164 = DIRECTION ( 'NONE',  ( 1.000000000000000000, 0.0000000000000000000, 0.0000000000000000000 ) ) ;
#165 = AXIS2_PLACEMENT_3D ( 'NONE', #48, #163, #97 ) ;
#166 = SURFACE_STYLE_USAGE ( .BOTH. , #142 ) ;
#167 = AXIS2_PLACEMENT_3D ( 'NONE', #184, #173, #47 ) ;
#168 = CARTESIAN_POINT ( 'NONE',  ( 36.00000000000000000, 0.0000000000000000000, 0.0000000000000000000 ) ) ;
#169 = PRESENTATION_LAYER_ASSIGNMENT (  '', '', ( #109 ) ) ;
#170 = DIRECTION ( 'NONE',  ( 0.0000000000000000000, 0.0000000000000000000, -1.000000000000000000 ) ) ;
#171 = COLOUR_RGB ( '',1.000000000000000000, 1.000000000000000000, 0.0000000000000000000 ) ;
#172 = EDGE_LOOP ( 'NONE', ( #36 ) ) ;
#173 = DIRECTION ( 'NONE',  ( 1.000000000000000000, 0.0000000000000000000, 0.0000000000000000000 ) ) ;
#174 =( GEOMETRIC_REPRESENTATION_CONTEXT ( 3 ) GLOBAL_UNCERTAINTY_ASSIGNED_CONTEXT ( ( #180 ) ) GLOBAL_UNIT_ASSIGNED_CONTEXT ( ( #64, #58, #103 ) ) REPRESENTATION_CONTEXT ( 'NONE', 'WORKASPACE' ) );
#175 = EDGE_LOOP ( 'NONE', ( #37 ) ) ;
#176 = SURFACE_STYLE_FILL_AREA ( #151 ) ;
#177 = PLANE ( 'NONE',  #202 ) ;
#178 =( NAMED_UNIT ( * ) SI_UNIT ( $, .STERADIAN. ) SOLID_ANGLE_UNIT ( ) );
#179 = FACE_OUTER_BOUND ( 'NONE', #143, .T. ) ;
#180 = UNCERTAINTY_MEASURE_WITH_UNIT (LENGTH_MEASURE( 1.000000000000000082E-05 ), #64, 'distance_accuracy_value', 'NONE');
#181 = FILL_AREA_STYLE_COLOUR ( '', #53 ) ;
#182 = FILL_AREA_STYLE_COLOUR ( '', #78 ) ;
#183 = MECHANICAL_DESIGN_GEOMETRIC_PRESENTATION_REPRESENTATION (  '', ( #114 ), #4 ) ;
#184 = CARTESIAN_POINT ( 'NONE',  ( 36.00000000000000000, 0.0000000000000000000, 0.0000000000000000000 ) ) ;
#185 =( NAMED_UNIT ( * ) PLANE_ANGLE_UNIT ( ) SI_UNIT ( $, .RADIAN. ) );
#186 = DIRECTION ( 'NONE',  ( -1.000000000000000000, -0.0000000000000000000, -0.0000000000000000000 ) ) ;
#187 = FACE_OUTER_BOUND ( 'NONE', #172, .T. ) ;
#188 = AXIS2_PLACEMENT_3D ( 'NONE', #76, #38, #24 ) ;
#189 = CARTESIAN_POINT ( 'NONE',  ( 91.88162338159263243, 0.0000000000000000000, 2.700000000000011280 ) ) ;
#190 =( NAMED_UNIT ( * ) PLANE_ANGLE_UNIT ( ) SI_UNIT ( $, .RADIAN. ) );
#191 = ORIENTED_EDGE ( 'NONE', *, *, #144, .F. ) ;
#192 = UNCERTAINTY_MEASURE_WITH_UNIT (LENGTH_MEASURE( 1.000000000000000082E-05 ), #88, 'distance_accuracy_value', 'NONE');
#193 = DIRECTION ( 'NONE',  ( 0.0000000000000000000, 0.0000000000000000000, -1.000000000000000000 ) ) ;
#194 =( NAMED_UNIT ( * ) PLANE_ANGLE_UNIT ( ) SI_UNIT ( $, .RADIAN. ) );
#195 = CARTESIAN_POINT ( 'NONE',  ( -907.0000000000000000, 0.0000000000000000000, 0.0000000000000000000 ) ) ;
#196 = PRESENTATION_STYLE_ASSIGNMENT (( #166 ) ) ;
#197 = FILL_AREA_STYLE_COLOUR ( '', #171 ) ;
#198 = DIRECTION ( 'NONE',  ( -1.000000000000000000, -0.0000000000000000000, -0.0000000000000000000 ) ) ;
#199 = PRESENTATION_STYLE_ASSIGNMENT (( #54 ) ) ;
#200 = DIRECTION ( 'NONE',  ( 0.0000000000000000000, 0.0000000000000000000, -1.000000000000000000 ) ) ;
#201 = AXIS2_PLACEMENT_3D ( 'NONE', #195, #132, #112 ) ;
#202 = AXIS2_PLACEMENT_3D ( 'NONE', #133, #152, #170 ) ;
#203 = FACE_OUTER_BOUND ( 'NONE', #61, .T. ) ;
#204 = CARTESIAN_POINT ( 'NONE',  ( 0.5400000000000048095, 0.0000000000000000000, -2.700000000000006395 ) ) ;
#205 = PRESENTATION_LAYER_ASSIGNMENT (  '', '', ( #82 ) ) ;
#206 = EDGE_LOOP ( 'NONE', ( #191 ) ) ;
#207 = MECHANICAL_DESIGN_GEOMETRIC_PRESENTATION_REPRESENTATION (  '', ( #161 ), #174 ) ;
#208 = SURFACE_STYLE_USAGE ( .BOTH. , #60 ) ;
#209 = CLOSED_SHELL ( 'NONE', ( #43, #25, #65 ) ) ;
#210 = VERTEX_POINT ( 'NONE', #189 ) ;
#211 = ORIENTED_EDGE ( 'NONE', *, *, #63, .F. ) ;
#212 = DIRECTION ( 'NONE',  ( 0.0000000000000000000, 0.0000000000000000000, 1.000000000000000000 ) ) ;
#213 = PLANE ( 'NONE',  #167 ) ;
ENDSEC;
END-ISO-10303-21;
