ISO-10303-21;
HEADER;
FILE_DESCRIPTION (( 'STEP AP214' ),
    '1' );
FILE_NAME ('03-1661.STEP',
    '2021-10-01T05:31:20',
    ( 'USER' ),
    ( '' ),
    'SwSTEP 2.0',
    'SolidWorks 2018',
    '' );
FILE_SCHEMA (( 'AUTOMOTIVE_DESIGN' ));
ENDSEC;

DATA;
#1 = AXIS2_PLACEMENT_3D ( 'NONE', #98, #187, #62 ) ;
#2 = APPLICATION_CONTEXT ( 'automotive_design' ) ;
#3 = MECHANICAL_DESIGN_GEOMETRIC_PRESENTATION_REPRESENTATION (  '', ( #190 ), #138 ) ;
#4 = CARTESIAN_POINT ( 'NONE',  ( -1.683889348827610013E-16, 0.0000000000000000000, -2.200000000000007283 ) ) ;
#5 = FILL_AREA_STYLE ('',( #205 ) ) ;
#6 = DIRECTION ( 'NONE',  ( 1.000000000000000000, 0.0000000000000000000, 0.0000000000000000000 ) ) ;
#7 = STYLED_ITEM ( 'NONE', ( #87 ), #67 ) ;
#8 = EDGE_LOOP ( 'NONE', ( #41 ) ) ;
#9 = FACE_OUTER_BOUND ( 'NONE', #177, .T. ) ;
#10 = ADVANCED_FACE ( 'NONE', ( #9, #92 ), #49, .T. ) ;
#11 = AXIS2_PLACEMENT_3D ( 'NONE', #199, #14, #135 ) ;
#12 = SURFACE_STYLE_FILL_AREA ( #211 ) ;
#13 = FACE_OUTER_BOUND ( 'NONE', #24, .T. ) ;
#14 = DIRECTION ( 'NONE',  ( 1.000000000000000000, 0.0000000000000000000, 0.0000000000000000000 ) ) ;
#15 = FILL_AREA_STYLE ('',( #71 ) ) ;
#16 =( NAMED_UNIT ( * ) PLANE_ANGLE_UNIT ( ) SI_UNIT ( $, .RADIAN. ) );
#17 = PRESENTATION_STYLE_ASSIGNMENT (( #203 ) ) ;
#18 = EDGE_LOOP ( 'NONE', ( #26 ) ) ;
#19 = EDGE_LOOP ( 'NONE', ( #53 ) ) ;
#20 = AXIS2_PLACEMENT_3D ( 'NONE', #141, #6, #99 ) ;
#21 = ORIENTED_EDGE ( 'NONE', *, *, #163, .F. ) ;
#22 = EDGE_LOOP ( 'NONE', ( #35 ) ) ;
#23 = APPLICATION_PROTOCOL_DEFINITION ( 'draft international standard', 'automotive_design', 1998, #2 ) ;
#24 = EDGE_LOOP ( 'NONE', ( #150 ) ) ;
#25 = AXIS2_PLACEMENT_3D ( 'NONE', #127, #112, #60 ) ;
#26 = ORIENTED_EDGE ( 'NONE', *, *, #163, .T. ) ;
#27 = DIRECTION ( 'NONE',  ( 0.0000000000000000000, 0.0000000000000000000, -1.000000000000000000 ) ) ;
#28 = AXIS2_PLACEMENT_3D ( 'NONE', #169, #166, #167 ) ;
#29 = DIRECTION ( 'NONE',  ( 0.0000000000000000000, 0.0000000000000000000, -1.000000000000000000 ) ) ;
#30 = ORIENTED_EDGE ( 'NONE', *, *, #204, .T. ) ;
#31 = EDGE_LOOP ( 'NONE', ( #33 ) ) ;
#32 = UNCERTAINTY_MEASURE_WITH_UNIT (LENGTH_MEASURE( 1.000000000000000082E-05 ), #54, 'distance_accuracy_value', 'NONE');
#33 = ORIENTED_EDGE ( 'NONE', *, *, #193, .F. ) ;
#34 = AXIS2_PLACEMENT_3D ( 'NONE', #179, #110, #29 ) ;
#35 = ORIENTED_EDGE ( 'NONE', *, *, #173, .F. ) ;
#36 = ORIENTED_EDGE ( 'NONE', *, *, #182, .F. ) ;
#37 = SURFACE_STYLE_USAGE ( .BOTH. , #93 ) ;
#38 = PRODUCT_RELATED_PRODUCT_CATEGORY ( 'part', '', ( #50 ) ) ;
#39 =( LENGTH_UNIT ( ) NAMED_UNIT ( * ) SI_UNIT ( .MILLI., .METRE. ) );
#40 =( GEOMETRIC_REPRESENTATION_CONTEXT ( 3 ) GLOBAL_UNCERTAINTY_ASSIGNED_CONTEXT ( ( #128 ) ) GLOBAL_UNIT_ASSIGNED_CONTEXT ( ( #134, #181, #121 ) ) REPRESENTATION_CONTEXT ( 'NONE', 'WORKASPACE' ) );
#41 = ORIENTED_EDGE ( 'NONE', *, *, #193, .T. ) ;
#42 =( NAMED_UNIT ( * ) SI_UNIT ( $, .STERADIAN. ) SOLID_ANGLE_UNIT ( ) );
#43 = CIRCLE ( 'NONE', #1, 2.750000000000004885 ) ;
#44 = CLOSED_SHELL ( 'NONE', ( #10, #161, #86, #164 ) ) ;
#45 = EDGE_LOOP ( 'NONE', ( #36 ) ) ;
#46 = SURFACE_SIDE_STYLE ('',( #185 ) ) ;
#47 = CARTESIAN_POINT ( 'NONE',  ( -1.683889348827610013E-16, 2.749999999999999556, 0.0000000000000000000 ) ) ;
#48 = DIRECTION ( 'NONE',  ( 0.0000000000000000000, 0.0000000000000000000, 1.000000000000000000 ) ) ;
#49 = CYLINDRICAL_SURFACE ( 'NONE', #170, 2.750000000000004885 ) ;
#50 = PRODUCT ( '03-1661', '03-1661', '', ( #151 ) ) ;
#51 =( GEOMETRIC_REPRESENTATION_CONTEXT ( 3 ) GLOBAL_UNCERTAINTY_ASSIGNED_CONTEXT ( ( #32 ) ) GLOBAL_UNIT_ASSIGNED_CONTEXT ( ( #54, #16, #180 ) ) REPRESENTATION_CONTEXT ( 'NONE', 'WORKASPACE' ) );
#52 =( GEOMETRIC_REPRESENTATION_CONTEXT ( 3 ) GLOBAL_UNCERTAINTY_ASSIGNED_CONTEXT ( ( #73 ) ) GLOBAL_UNIT_ASSIGNED_CONTEXT ( ( #90, #184, #136 ) ) REPRESENTATION_CONTEXT ( 'NONE', 'WORKASPACE' ) );
#53 = ORIENTED_EDGE ( 'NONE', *, *, #182, .T. ) ;
#54 =( LENGTH_UNIT ( ) NAMED_UNIT ( * ) SI_UNIT ( .MILLI., .METRE. ) );
#55 = SURFACE_STYLE_USAGE ( .BOTH. , #105 ) ;
#56 = APPLICATION_PROTOCOL_DEFINITION ( 'draft international standard', 'automotive_design', 1998, #118 ) ;
#57 = AXIS2_PLACEMENT_3D ( 'NONE', #47, #145, #192 ) ;
#58 =( NAMED_UNIT ( * ) PLANE_ANGLE_UNIT ( ) SI_UNIT ( $, .RADIAN. ) );
#59 = CIRCLE ( 'NONE', #77, 2.750000000000011102 ) ;
#60 = DIRECTION ( 'NONE',  ( 0.0000000000000000000, 0.0000000000000000000, -1.000000000000000000 ) ) ;
#61 = FACE_OUTER_BOUND ( 'NONE', #31, .T. ) ;
#62 = DIRECTION ( 'NONE',  ( 0.0000000000000000000, 0.0000000000000000000, -1.000000000000000000 ) ) ;
#63 = COLOUR_RGB ( '',0.7921568627450980005, 0.8196078431372548767, 0.9333333333333333481 ) ;
#64 = STYLED_ITEM ( 'NONE', ( #171 ), #103 ) ;
#65 = EDGE_LOOP ( 'NONE', ( #96 ) ) ;
#66 = VERTEX_POINT ( 'NONE', #176 ) ;
#67 = MANIFOLD_SOLID_BREP ( 'ºÐÇÒ2[1]', #44 ) ;
#68 = AXIS2_PLACEMENT_3D ( 'NONE', #116, #101, #27 ) ;
#69 = AXIS2_PLACEMENT_3D ( 'NONE', #108, #212, #48 ) ;
#70 = CARTESIAN_POINT ( 'NONE',  ( 0.0000000000000000000, 0.0000000000000000000, 0.0000000000000000000 ) ) ;
#71 = FILL_AREA_STYLE_COLOUR ( '', #79 ) ;
#72 = FILL_AREA_STYLE ('',( #124 ) ) ;
#73 = UNCERTAINTY_MEASURE_WITH_UNIT (LENGTH_MEASURE( 1.000000000000000082E-05 ), #90, 'distance_accuracy_value', 'NONE');
#74 = CIRCLE ( 'NONE', #34, 2.750000000000004885 ) ;
#75 = PRODUCT_DEFINITION_SHAPE ( 'NONE', 'NONE',  #178 ) ;
#76 = DIRECTION ( 'NONE',  ( 0.0000000000000000000, 0.0000000000000000000, 1.000000000000000000 ) ) ;
#77 = AXIS2_PLACEMENT_3D ( 'NONE', #81, #174, #159 ) ;
#78 = VERTEX_POINT ( 'NONE', #202 ) ;
#79 = COLOUR_RGB ( '',0.7921568627450980005, 0.8196078431372548767, 0.9333333333333333481 ) ;
#80 = STYLED_ITEM ( 'NONE', ( #130 ), #148 ) ;
#81 = CARTESIAN_POINT ( 'NONE',  ( 91.86091270347397142, 0.0000000000000000000, 0.0000000000000000000 ) ) ;
#82 = PRESENTATION_STYLE_ASSIGNMENT (( #37 ) ) ;
#83 = MANIFOLD_SOLID_BREP ( 'ºÐÇÒ2[2]', #142 ) ;
#84 = VERTEX_POINT ( 'NONE', #158 ) ;
#85 = EDGE_LOOP ( 'NONE', ( #21 ) ) ;
#86 = ADVANCED_FACE ( 'NONE', ( #88, #126 ), #104, .T. ) ;
#87 = PRESENTATION_STYLE_ASSIGNMENT (( #196 ) ) ;
#88 = FACE_OUTER_BOUND ( 'NONE', #65, .T. ) ;
#89 = VERTEX_POINT ( 'NONE', #139 ) ;
#90 =( LENGTH_UNIT ( ) NAMED_UNIT ( * ) SI_UNIT ( .MILLI., .METRE. ) );
#91 = AXIS2_PLACEMENT_3D ( 'NONE', #70, #197, #76 ) ;
#92 = FACE_OUTER_BOUND ( 'NONE', #22, .T. ) ;
#93 = SURFACE_SIDE_STYLE ('',( #143 ) ) ;
#94 = COLOUR_RGB ( '',1.000000000000000000, 1.000000000000000000, 0.0000000000000000000 ) ;
#95 = FACE_OUTER_BOUND ( 'NONE', #19, .T. ) ;
#96 = ORIENTED_EDGE ( 'NONE', *, *, #204, .F. ) ;
#97 = VERTEX_POINT ( 'NONE', #4 ) ;
#98 = CARTESIAN_POINT ( 'NONE',  ( 0.5499999999999912736, 0.0000000000000000000, 0.0000000000000000000 ) ) ;
#99 = DIRECTION ( 'NONE',  ( 0.0000000000000000000, 0.0000000000000000000, -1.000000000000000000 ) ) ;
#100 = SURFACE_STYLE_FILL_AREA ( #72 ) ;
#101 = DIRECTION ( 'NONE',  ( 1.000000000000000000, 0.0000000000000000000, 0.0000000000000000000 ) ) ;
#102 = FACE_OUTER_BOUND ( 'NONE', #8, .T. ) ;
#103 = ADVANCED_FACE ( 'NONE', ( #147, #102 ), #146, .T. ) ;
#104 = CONICAL_SURFACE ( 'NONE', #28, 2.200000000000007283, 0.7853981633974538301 ) ;
#105 = SURFACE_SIDE_STYLE ('',( #129 ) ) ;
#106 = DIRECTION ( 'NONE',  ( 0.0000000000000000000, 0.0000000000000000000, 1.000000000000000000 ) ) ;
#107 =( NAMED_UNIT ( * ) SI_UNIT ( $, .STERADIAN. ) SOLID_ANGLE_UNIT ( ) );
#108 = CARTESIAN_POINT ( 'NONE',  ( -907.0000000000000000, 0.0000000000000000000, 0.0000000000000000000 ) ) ;
#109 = CARTESIAN_POINT ( 'NONE',  ( 0.0000000000000000000, 0.0000000000000000000, 0.0000000000000000000 ) ) ;
#110 = DIRECTION ( 'NONE',  ( 1.000000000000000000, 0.0000000000000000000, 0.0000000000000000000 ) ) ;
#111 = DIRECTION ( 'NONE',  ( 0.0000000000000000000, 0.0000000000000000000, 1.000000000000000000 ) ) ;
#112 = DIRECTION ( 'NONE',  ( -1.000000000000000000, -0.0000000000000000000, -0.0000000000000000000 ) ) ;
#113 = CARTESIAN_POINT ( 'NONE',  ( 0.0000000000000000000, 0.0000000000000000000, 0.0000000000000000000 ) ) ;
#114 = PRESENTATION_LAYER_ASSIGNMENT (  '', '', ( #64 ) ) ;
#115 = UNCERTAINTY_MEASURE_WITH_UNIT (LENGTH_MEASURE( 1.000000000000000082E-05 ), #39, 'distance_accuracy_value', 'NONE');
#116 = CARTESIAN_POINT ( 'NONE',  ( 36.00000000000000000, 0.0000000000000000000, 0.0000000000000000000 ) ) ;
#117 = ADVANCED_FACE ( 'NONE', ( #125 ), #133, .F. ) ;
#118 = APPLICATION_CONTEXT ( 'automotive_design' ) ;
#119 = PRODUCT_DEFINITION_FORMATION_WITH_SPECIFIED_SOURCE ( 'ANY', '', #50, .NOT_KNOWN. ) ;
#120 = SHAPE_DEFINITION_REPRESENTATION ( #75, #175 ) ;
#121 =( NAMED_UNIT ( * ) SI_UNIT ( $, .STERADIAN. ) SOLID_ANGLE_UNIT ( ) );
#122 = MECHANICAL_DESIGN_GEOMETRIC_PRESENTATION_REPRESENTATION (  '', ( #64 ), #52 ) ;
#123 = COLOUR_RGB ( '',0.7921568627450980005, 0.8196078431372548767, 0.9333333333333333481 ) ;
#124 = FILL_AREA_STYLE_COLOUR ( '', #144 ) ;
#125 = FACE_OUTER_BOUND ( 'NONE', #85, .T. ) ;
#126 = FACE_BOUND ( 'NONE', #45, .T. ) ;
#127 = CARTESIAN_POINT ( 'NONE',  ( -1.683889348827610013E-16, 0.0000000000000000000, 0.0000000000000000000 ) ) ;
#128 = UNCERTAINTY_MEASURE_WITH_UNIT (LENGTH_MEASURE( 1.000000000000000082E-05 ), #134, 'distance_accuracy_value', 'NONE');
#129 = SURFACE_STYLE_FILL_AREA ( #201 ) ;
#130 = PRESENTATION_STYLE_ASSIGNMENT (( #55 ) ) ;
#131 = PLANE ( 'NONE',  #20 ) ;
#132 =( GEOMETRIC_REPRESENTATION_CONTEXT ( 3 ) GLOBAL_UNCERTAINTY_ASSIGNED_CONTEXT ( ( #183 ) ) GLOBAL_UNIT_ASSIGNED_CONTEXT ( ( #188, #156, #42 ) ) REPRESENTATION_CONTEXT ( 'NONE', 'WORKASPACE' ) );
#133 = PLANE ( 'NONE',  #11 ) ;
#134 =( LENGTH_UNIT ( ) NAMED_UNIT ( * ) SI_UNIT ( .MILLI., .METRE. ) );
#135 = DIRECTION ( 'NONE',  ( 0.0000000000000000000, 0.0000000000000000000, -1.000000000000000000 ) ) ;
#136 =( NAMED_UNIT ( * ) SI_UNIT ( $, .STERADIAN. ) SOLID_ANGLE_UNIT ( ) );
#137 = AXIS2_PLACEMENT_3D ( 'NONE', #113, #111, #195 ) ;
#138 =( GEOMETRIC_REPRESENTATION_CONTEXT ( 3 ) GLOBAL_UNCERTAINTY_ASSIGNED_CONTEXT ( ( #198 ) ) GLOBAL_UNIT_ASSIGNED_CONTEXT ( ( #172, #58, #155 ) ) REPRESENTATION_CONTEXT ( 'NONE', 'WORKASPACE' ) );
#139 = CARTESIAN_POINT ( 'NONE',  ( 0.5499999999999912736, 0.0000000000000000000, -2.750000000000004885 ) ) ;
#140 = STYLED_ITEM ( 'NONE', ( #82 ), #83 ) ;
#141 = CARTESIAN_POINT ( 'NONE',  ( 36.00000000000000000, 0.0000000000000000000, 0.0000000000000000000 ) ) ;
#142 = CLOSED_SHELL ( 'NONE', ( #117, #103, #148 ) ) ;
#143 = SURFACE_STYLE_FILL_AREA ( #15 ) ;
#144 = COLOUR_RGB ( '',1.000000000000000000, 1.000000000000000000, 0.0000000000000000000 ) ;
#145 = DIRECTION ( 'NONE',  ( 1.000000000000000000, 0.0000000000000000000, 0.0000000000000000000 ) ) ;
#146 = CYLINDRICAL_SURFACE ( 'NONE', #91, 2.750000000000004885 ) ;
#147 = FACE_OUTER_BOUND ( 'NONE', #18, .T. ) ;
#148 = ADVANCED_FACE ( 'NONE', ( #61 ), #200, .T. ) ;
#149 = PRESENTATION_LAYER_ASSIGNMENT (  '', '', ( #190 ) ) ;
#150 = ORIENTED_EDGE ( 'NONE', *, *, #173, .T. ) ;
#151 = PRODUCT_CONTEXT ( 'NONE', #2, 'mechanical' ) ;
#152 = FILL_AREA_STYLE_COLOUR ( '', #94 ) ;
#153 = DIRECTION ( 'NONE',  ( -1.000000000000000000, -0.0000000000000000000, -0.0000000000000000000 ) ) ;
#154 = SURFACE_SIDE_STYLE ('',( #12 ) ) ;
#155 =( NAMED_UNIT ( * ) SI_UNIT ( $, .STERADIAN. ) SOLID_ANGLE_UNIT ( ) );
#156 =( NAMED_UNIT ( * ) PLANE_ANGLE_UNIT ( ) SI_UNIT ( $, .RADIAN. ) );
#157 = MECHANICAL_DESIGN_GEOMETRIC_PRESENTATION_REPRESENTATION (  '', ( #80 ), #51 ) ;
#158 = CARTESIAN_POINT ( 'NONE',  ( 91.86091270347397142, 0.0000000000000000000, 2.750000000000011102 ) ) ;
#159 = DIRECTION ( 'NONE',  ( 0.0000000000000000000, 0.0000000000000000000, 1.000000000000000000 ) ) ;
#160 = PRESENTATION_LAYER_ASSIGNMENT (  '', '', ( #140 ) ) ;
#161 = ADVANCED_FACE ( 'NONE', ( #95 ), #208, .F. ) ;
#162 = CIRCLE ( 'NONE', #68, 2.750000000000004885 ) ;
#163 = EDGE_CURVE ( 'NONE', #66, #66, #162, .T. ) ;
#164 = ADVANCED_FACE ( 'NONE', ( #13 ), #131, .T. ) ;
#165 = SURFACE_SIDE_STYLE ('',( #100 ) ) ;
#166 = DIRECTION ( 'NONE',  ( 1.000000000000000000, 0.0000000000000000000, 0.0000000000000000000 ) ) ;
#167 = DIRECTION ( 'NONE',  ( 0.0000000000000000000, 0.0000000000000000000, -1.000000000000000000 ) ) ;
#168 =( NAMED_UNIT ( * ) PLANE_ANGLE_UNIT ( ) SI_UNIT ( $, .RADIAN. ) );
#169 = CARTESIAN_POINT ( 'NONE',  ( -1.683889348827610013E-16, 0.0000000000000000000, 0.0000000000000000000 ) ) ;
#170 = AXIS2_PLACEMENT_3D ( 'NONE', #109, #153, #106 ) ;
#171 = PRESENTATION_STYLE_ASSIGNMENT (( #209 ) ) ;
#172 =( LENGTH_UNIT ( ) NAMED_UNIT ( * ) SI_UNIT ( .MILLI., .METRE. ) );
#173 = EDGE_CURVE ( 'NONE', #78, #78, #74, .T. ) ;
#174 = DIRECTION ( 'NONE',  ( -1.000000000000000000, -0.0000000000000000000, -0.0000000000000000000 ) ) ;
#175 = ADVANCED_BREP_SHAPE_REPRESENTATION ( '03-1661', ( #67, #83, #137 ), #132 ) ;
#176 = CARTESIAN_POINT ( 'NONE',  ( 36.00000000000000000, 0.0000000000000000000, -2.750000000000004885 ) ) ;
#177 = EDGE_LOOP ( 'NONE', ( #30 ) ) ;
#178 = PRODUCT_DEFINITION ( 'UNKNOWN', '', #119, #189 ) ;
#179 = CARTESIAN_POINT ( 'NONE',  ( 36.00000000000000000, 0.0000000000000000000, 0.0000000000000000000 ) ) ;
#180 =( NAMED_UNIT ( * ) SI_UNIT ( $, .STERADIAN. ) SOLID_ANGLE_UNIT ( ) );
#181 =( NAMED_UNIT ( * ) PLANE_ANGLE_UNIT ( ) SI_UNIT ( $, .RADIAN. ) );
#182 = EDGE_CURVE ( 'NONE', #97, #97, #186, .T. ) ;
#183 = UNCERTAINTY_MEASURE_WITH_UNIT (LENGTH_MEASURE( 1.000000000000000082E-05 ), #188, 'distance_accuracy_value', 'NONE');
#184 =( NAMED_UNIT ( * ) PLANE_ANGLE_UNIT ( ) SI_UNIT ( $, .RADIAN. ) );
#185 = SURFACE_STYLE_FILL_AREA ( #5 ) ;
#186 = CIRCLE ( 'NONE', #25, 2.200000000000007283 ) ;
#187 = DIRECTION ( 'NONE',  ( 1.000000000000000000, 0.0000000000000000000, 0.0000000000000000000 ) ) ;
#188 =( LENGTH_UNIT ( ) NAMED_UNIT ( * ) SI_UNIT ( .MILLI., .METRE. ) );
#189 = PRODUCT_DEFINITION_CONTEXT ( 'detailed design', #118, 'design' ) ;
#190 = STYLED_ITEM ( 'NONE', ( #17 ), #175 ) ;
#191 = MECHANICAL_DESIGN_GEOMETRIC_PRESENTATION_REPRESENTATION (  '', ( #7 ), #40 ) ;
#192 = DIRECTION ( 'NONE',  ( 0.0000000000000000000, 0.0000000000000000000, -1.000000000000000000 ) ) ;
#193 = EDGE_CURVE ( 'NONE', #84, #84, #59, .T. ) ;
#194 =( GEOMETRIC_REPRESENTATION_CONTEXT ( 3 ) GLOBAL_UNCERTAINTY_ASSIGNED_CONTEXT ( ( #115 ) ) GLOBAL_UNIT_ASSIGNED_CONTEXT ( ( #39, #168, #107 ) ) REPRESENTATION_CONTEXT ( 'NONE', 'WORKASPACE' ) );
#195 = DIRECTION ( 'NONE',  ( 1.000000000000000000, 0.0000000000000000000, 0.0000000000000000000 ) ) ;
#196 = SURFACE_STYLE_USAGE ( .BOTH. , #154 ) ;
#197 = DIRECTION ( 'NONE',  ( -1.000000000000000000, -0.0000000000000000000, -0.0000000000000000000 ) ) ;
#198 = UNCERTAINTY_MEASURE_WITH_UNIT (LENGTH_MEASURE( 1.000000000000000082E-05 ), #172, 'distance_accuracy_value', 'NONE');
#199 = CARTESIAN_POINT ( 'NONE',  ( 36.00000000000000000, 0.0000000000000000000, 0.0000000000000000000 ) ) ;
#200 = CONICAL_SURFACE ( 'NONE', #69, 2414.213562373081004, 1.178097245096170420 ) ;
#201 = FILL_AREA_STYLE ('',( #152 ) ) ;
#202 = CARTESIAN_POINT ( 'NONE',  ( 36.00000000000000000, 0.0000000000000000000, -2.750000000000004885 ) ) ;
#203 = SURFACE_STYLE_USAGE ( .BOTH. , #46 ) ;
#204 = EDGE_CURVE ( 'NONE', #89, #89, #43, .T. ) ;
#205 = FILL_AREA_STYLE_COLOUR ( '', #123 ) ;
#206 = MECHANICAL_DESIGN_GEOMETRIC_PRESENTATION_REPRESENTATION (  '', ( #140 ), #194 ) ;
#207 = PRESENTATION_LAYER_ASSIGNMENT (  '', '', ( #80 ) ) ;
#208 = PLANE ( 'NONE',  #57 ) ;
#209 = SURFACE_STYLE_USAGE ( .BOTH. , #165 ) ;
#210 = FILL_AREA_STYLE_COLOUR ( '', #63 ) ;
#211 = FILL_AREA_STYLE ('',( #210 ) ) ;
#212 = DIRECTION ( 'NONE',  ( -1.000000000000000000, -0.0000000000000000000, -0.0000000000000000000 ) ) ;
#213 = PRESENTATION_LAYER_ASSIGNMENT (  '', '', ( #7 ) ) ;
ENDSEC;
END-ISO-10303-21;
