ISO-10303-21;
HEADER;
FILE_DESCRIPTION (( 'STEP AP214' ),
    '1' );
FILE_NAME ('03-1662.STEP',
    '2021-10-01T05:31:39',
    ( 'USER' ),
    ( '' ),
    'SwSTEP 2.0',
    'SolidWorks 2018',
    '' );
FILE_SCHEMA (( 'AUTOMOTIVE_DESIGN' ));
ENDSEC;

DATA;
#1 = SURFACE_STYLE_USAGE ( .BOTH. , #15 ) ;
#2 = PLANE ( 'NONE',  #183 ) ;
#3 = FACE_OUTER_BOUND ( 'NONE', #146, .T. ) ;
#4 = SURFACE_STYLE_FILL_AREA ( #75 ) ;
#5 = EDGE_LOOP ( 'NONE', ( #76 ) ) ;
#6 = STYLED_ITEM ( 'NONE', ( #66 ), #122 ) ;
#7 = CYLINDRICAL_SURFACE ( 'NONE', #79, 2.800000000000005596 ) ;
#8 = FILL_AREA_STYLE_COLOUR ( '', #114 ) ;
#9 = DIRECTION ( 'NONE',  ( 0.0000000000000000000, 0.0000000000000000000, -1.000000000000000000 ) ) ;
#10 = AXIS2_PLACEMENT_3D ( 'NONE', #142, #95, #108 ) ;
#11 = EDGE_LOOP ( 'NONE', ( #205 ) ) ;
#12 = DIRECTION ( 'NONE',  ( 0.0000000000000000000, 0.0000000000000000000, -1.000000000000000000 ) ) ;
#13 =( NAMED_UNIT ( * ) SI_UNIT ( $, .STERADIAN. ) SOLID_ANGLE_UNIT ( ) );
#14 = PRESENTATION_STYLE_ASSIGNMENT (( #176 ) ) ;
#15 = SURFACE_SIDE_STYLE ('',( #4 ) ) ;
#16 = PLANE ( 'NONE',  #198 ) ;
#17 = VERTEX_POINT ( 'NONE', #62 ) ;
#18 = UNCERTAINTY_MEASURE_WITH_UNIT (LENGTH_MEASURE( 1.000000000000000082E-05 ), #163, 'distance_accuracy_value', 'NONE');
#19 = SURFACE_STYLE_FILL_AREA ( #73 ) ;
#20 = DIRECTION ( 'NONE',  ( 0.0000000000000000000, 0.0000000000000000000, 1.000000000000000000 ) ) ;
#21 = CARTESIAN_POINT ( 'NONE',  ( 0.0000000000000000000, 0.0000000000000000000, 0.0000000000000000000 ) ) ;
#22 = STYLED_ITEM ( 'NONE', ( #140 ), #168 ) ;
#23 = VERTEX_POINT ( 'NONE', #190 ) ;
#24 = DIRECTION ( 'NONE',  ( 0.0000000000000000000, 0.0000000000000000000, 1.000000000000000000 ) ) ;
#25 = MANIFOLD_SOLID_BREP ( 'ºÐÇÒ2[2]', #92 ) ;
#26 =( NAMED_UNIT ( * ) PLANE_ANGLE_UNIT ( ) SI_UNIT ( $, .RADIAN. ) );
#27 = FACE_OUTER_BOUND ( 'NONE', #11, .T. ) ;
#28 = DIRECTION ( 'NONE',  ( -1.000000000000000000, -0.0000000000000000000, -0.0000000000000000000 ) ) ;
#29 = FILL_AREA_STYLE ('',( #85 ) ) ;
#30 = COLOUR_RGB ( '',0.7921568627450980005, 0.8196078431372548767, 0.9333333333333333481 ) ;
#31 = DIRECTION ( 'NONE',  ( 0.0000000000000000000, 0.0000000000000000000, -1.000000000000000000 ) ) ;
#32 = PRESENTATION_LAYER_ASSIGNMENT (  '', '', ( #22 ) ) ;
#33 = SURFACE_STYLE_FILL_AREA ( #206 ) ;
#34 = ADVANCED_FACE ( 'NONE', ( #202 ), #16, .F. ) ;
#35 = CARTESIAN_POINT ( 'NONE',  ( 0.0000000000000000000, 0.0000000000000000000, 0.0000000000000000000 ) ) ;
#36 = MECHANICAL_DESIGN_GEOMETRIC_PRESENTATION_REPRESENTATION (  '', ( #43 ), #208 ) ;
#37 = COLOUR_RGB ( '',0.7921568627450980005, 0.8196078431372548767, 0.9333333333333333481 ) ;
#38 =( LENGTH_UNIT ( ) NAMED_UNIT ( * ) SI_UNIT ( .MILLI., .METRE. ) );
#39 = SURFACE_SIDE_STYLE ('',( #33 ) ) ;
#40 = CARTESIAN_POINT ( 'NONE',  ( 36.00000000000000000, 0.0000000000000000000, -2.800000000000005596 ) ) ;
#41 = AXIS2_PLACEMENT_3D ( 'NONE', #60, #134, #12 ) ;
#42 = DIRECTION ( 'NONE',  ( 1.000000000000000000, 0.0000000000000000000, 0.0000000000000000000 ) ) ;
#43 = STYLED_ITEM ( 'NONE', ( #177 ), #47 ) ;
#44 = SURFACE_SIDE_STYLE ('',( #45 ) ) ;
#45 = SURFACE_STYLE_FILL_AREA ( #29 ) ;
#46 = PRESENTATION_LAYER_ASSIGNMENT (  '', '', ( #6 ) ) ;
#47 = ADVANCED_BREP_SHAPE_REPRESENTATION ( '03-1662', ( #103, #25, #105 ), #118 ) ;
#48 = ADVANCED_FACE ( 'NONE', ( #133 ), #2, .T. ) ;
#49 = CIRCLE ( 'NONE', #165, 2.239999999999991775 ) ;
#50 = PRODUCT_DEFINITION_SHAPE ( 'NONE', 'NONE',  #125 ) ;
#51 =( LENGTH_UNIT ( ) NAMED_UNIT ( * ) SI_UNIT ( .MILLI., .METRE. ) );
#52 = SURFACE_SIDE_STYLE ('',( #19 ) ) ;
#53 = AXIS2_PLACEMENT_3D ( 'NONE', #81, #121, #98 ) ;
#54 = UNCERTAINTY_MEASURE_WITH_UNIT (LENGTH_MEASURE( 1.000000000000000082E-05 ), #212, 'distance_accuracy_value', 'NONE');
#55 = APPLICATION_CONTEXT ( 'automotive_design' ) ;
#56 = VERTEX_POINT ( 'NONE', #171 ) ;
#57 = COLOUR_RGB ( '',0.7921568627450980005, 0.8196078431372548767, 0.9333333333333333481 ) ;
#58 = SURFACE_STYLE_USAGE ( .BOTH. , #82 ) ;
#59 =( GEOMETRIC_REPRESENTATION_CONTEXT ( 3 ) GLOBAL_UNCERTAINTY_ASSIGNED_CONTEXT ( ( #210 ) ) GLOBAL_UNIT_ASSIGNED_CONTEXT ( ( #127, #204, #90 ) ) REPRESENTATION_CONTEXT ( 'NONE', 'WORKASPACE' ) );
#60 = CARTESIAN_POINT ( 'NONE',  ( 36.00000000000000000, 0.0000000000000000000, 0.0000000000000000000 ) ) ;
#61 = CARTESIAN_POINT ( 'NONE',  ( 91.84020202535531041, 0.0000000000000000000, 0.0000000000000000000 ) ) ;
#62 = CARTESIAN_POINT ( 'NONE',  ( -1.714505518806294145E-16, 0.0000000000000000000, -2.239999999999991775 ) ) ;
#63 = ORIENTED_EDGE ( 'NONE', *, *, #155, .F. ) ;
#64 = DIRECTION ( 'NONE',  ( 1.000000000000000000, 0.0000000000000000000, 0.0000000000000000000 ) ) ;
#65 = AXIS2_PLACEMENT_3D ( 'NONE', #179, #42, #131 ) ;
#66 = PRESENTATION_STYLE_ASSIGNMENT (( #58 ) ) ;
#67 = CONICAL_SURFACE ( 'NONE', #10, 2414.213562373058721, 1.178097245096167089 ) ;
#68 = DIRECTION ( 'NONE',  ( -1.000000000000000000, -0.0000000000000000000, -0.0000000000000000000 ) ) ;
#69 = AXIS2_PLACEMENT_3D ( 'NONE', #159, #115, #211 ) ;
#70 = PRODUCT_CONTEXT ( 'NONE', #102, 'mechanical' ) ;
#71 = FACE_OUTER_BOUND ( 'NONE', #129, .T. ) ;
#72 = PLANE ( 'NONE',  #69 ) ;
#73 = FILL_AREA_STYLE ('',( #96 ) ) ;
#74 = FACE_OUTER_BOUND ( 'NONE', #93, .T. ) ;
#75 = FILL_AREA_STYLE ('',( #117 ) ) ;
#76 = ORIENTED_EDGE ( 'NONE', *, *, #139, .F. ) ;
#77 = CARTESIAN_POINT ( 'NONE',  ( 36.00000000000000000, 0.0000000000000000000, 0.0000000000000000000 ) ) ;
#78 = APPLICATION_PROTOCOL_DEFINITION ( 'draft international standard', 'automotive_design', 1998, #55 ) ;
#79 = AXIS2_PLACEMENT_3D ( 'NONE', #136, #28, #130 ) ;
#80 = PRODUCT_RELATED_PRODUCT_CATEGORY ( 'part', '', ( #91 ) ) ;
#81 = CARTESIAN_POINT ( 'NONE',  ( -1.714505518806294145E-16, 0.0000000000000000000, 0.0000000000000000000 ) ) ;
#82 = SURFACE_SIDE_STYLE ('',( #158 ) ) ;
#83 = CLOSED_SHELL ( 'NONE', ( #185, #106, #200, #48 ) ) ;
#84 = PRESENTATION_LAYER_ASSIGNMENT (  '', '', ( #43 ) ) ;
#85 = FILL_AREA_STYLE_COLOUR ( '', #144 ) ;
#86 = CARTESIAN_POINT ( 'NONE',  ( 0.5600000000000121547, 0.0000000000000000000, 0.0000000000000000000 ) ) ;
#87 = UNCERTAINTY_MEASURE_WITH_UNIT (LENGTH_MEASURE( 1.000000000000000082E-05 ), #186, 'distance_accuracy_value', 'NONE');
#88 = ORIENTED_EDGE ( 'NONE', *, *, #178, .F. ) ;
#89 =( NAMED_UNIT ( * ) PLANE_ANGLE_UNIT ( ) SI_UNIT ( $, .RADIAN. ) );
#90 =( NAMED_UNIT ( * ) SI_UNIT ( $, .STERADIAN. ) SOLID_ANGLE_UNIT ( ) );
#91 = PRODUCT ( '03-1662', '03-1662', '', ( #70 ) ) ;
#92 = CLOSED_SHELL ( 'NONE', ( #34, #122, #168 ) ) ;
#93 = EDGE_LOOP ( 'NONE', ( #193 ) ) ;
#94 = PRODUCT_DEFINITION_FORMATION_WITH_SPECIFIED_SOURCE ( 'ANY', '', #91, .NOT_KNOWN. ) ;
#95 = DIRECTION ( 'NONE',  ( -1.000000000000000000, -0.0000000000000000000, -0.0000000000000000000 ) ) ;
#96 = FILL_AREA_STYLE_COLOUR ( '', #57 ) ;
#97 = CIRCLE ( 'NONE', #65, 2.800000000000005596 ) ;
#98 = DIRECTION ( 'NONE',  ( 0.0000000000000000000, 0.0000000000000000000, -1.000000000000000000 ) ) ;
#99 = EDGE_LOOP ( 'NONE', ( #63 ) ) ;
#100 = MECHANICAL_DESIGN_GEOMETRIC_PRESENTATION_REPRESENTATION (  '', ( #184 ), #59 ) ;
#101 = SURFACE_STYLE_USAGE ( .BOTH. , #44 ) ;
#102 = APPLICATION_CONTEXT ( 'automotive_design' ) ;
#103 = MANIFOLD_SOLID_BREP ( 'ºÐÇÒ2[1]', #83 ) ;
#104 =( GEOMETRIC_REPRESENTATION_CONTEXT ( 3 ) GLOBAL_UNCERTAINTY_ASSIGNED_CONTEXT ( ( #132 ) ) GLOBAL_UNIT_ASSIGNED_CONTEXT ( ( #38, #160, #128 ) ) REPRESENTATION_CONTEXT ( 'NONE', 'WORKASPACE' ) );
#105 = AXIS2_PLACEMENT_3D ( 'NONE', #21, #24, #207 ) ;
#106 = ADVANCED_FACE ( 'NONE', ( #71 ), #72, .F. ) ;
#107 = AXIS2_PLACEMENT_3D ( 'NONE', #86, #181, #166 ) ;
#108 = DIRECTION ( 'NONE',  ( 0.0000000000000000000, 0.0000000000000000000, 1.000000000000000000 ) ) ;
#109 = VERTEX_POINT ( 'NONE', #40 ) ;
#110 = ORIENTED_EDGE ( 'NONE', *, *, #178, .T. ) ;
#111 = DIRECTION ( 'NONE',  ( -1.000000000000000000, -0.0000000000000000000, -0.0000000000000000000 ) ) ;
#112 = SHAPE_DEFINITION_REPRESENTATION ( #50, #47 ) ;
#113 = PRESENTATION_LAYER_ASSIGNMENT (  '', '', ( #124 ) ) ;
#114 = COLOUR_RGB ( '',1.000000000000000000, 1.000000000000000000, 0.0000000000000000000 ) ;
#115 = DIRECTION ( 'NONE',  ( 1.000000000000000000, 0.0000000000000000000, 0.0000000000000000000 ) ) ;
#116 =( NAMED_UNIT ( * ) PLANE_ANGLE_UNIT ( ) SI_UNIT ( $, .RADIAN. ) );
#117 = FILL_AREA_STYLE_COLOUR ( '', #30 ) ;
#118 =( GEOMETRIC_REPRESENTATION_CONTEXT ( 3 ) GLOBAL_UNCERTAINTY_ASSIGNED_CONTEXT ( ( #162 ) ) GLOBAL_UNIT_ASSIGNED_CONTEXT ( ( #51, #89, #195 ) ) REPRESENTATION_CONTEXT ( 'NONE', 'WORKASPACE' ) );
#119 = CIRCLE ( 'NONE', #107, 2.800000000000005596 ) ;
#120 = EDGE_LOOP ( 'NONE', ( #137 ) ) ;
#121 = DIRECTION ( 'NONE',  ( 1.000000000000000000, 0.0000000000000000000, 0.0000000000000000000 ) ) ;
#122 = ADVANCED_FACE ( 'NONE', ( #27, #199 ), #7, .T. ) ;
#123 = FACE_BOUND ( 'NONE', #5, .T. ) ;
#124 = STYLED_ITEM ( 'NONE', ( #14 ), #25 ) ;
#125 = PRODUCT_DEFINITION ( 'UNKNOWN', '', #94, #175 ) ;
#126 = EDGE_LOOP ( 'NONE', ( #88 ) ) ;
#127 =( LENGTH_UNIT ( ) NAMED_UNIT ( * ) SI_UNIT ( .MILLI., .METRE. ) );
#128 =( NAMED_UNIT ( * ) SI_UNIT ( $, .STERADIAN. ) SOLID_ANGLE_UNIT ( ) );
#129 = EDGE_LOOP ( 'NONE', ( #153 ) ) ;
#130 = DIRECTION ( 'NONE',  ( 0.0000000000000000000, 0.0000000000000000000, 1.000000000000000000 ) ) ;
#131 = DIRECTION ( 'NONE',  ( 0.0000000000000000000, 0.0000000000000000000, -1.000000000000000000 ) ) ;
#132 = UNCERTAINTY_MEASURE_WITH_UNIT (LENGTH_MEASURE( 1.000000000000000082E-05 ), #38, 'distance_accuracy_value', 'NONE');
#133 = FACE_OUTER_BOUND ( 'NONE', #197, .T. ) ;
#134 = DIRECTION ( 'NONE',  ( 1.000000000000000000, 0.0000000000000000000, 0.0000000000000000000 ) ) ;
#135 = AXIS2_PLACEMENT_3D ( 'NONE', #35, #154, #20 ) ;
#136 = CARTESIAN_POINT ( 'NONE',  ( 0.0000000000000000000, 0.0000000000000000000, 0.0000000000000000000 ) ) ;
#137 = ORIENTED_EDGE ( 'NONE', *, *, #147, .T. ) ;
#138 = APPLICATION_PROTOCOL_DEFINITION ( 'draft international standard', 'automotive_design', 1998, #102 ) ;
#139 = EDGE_CURVE ( 'NONE', #17, #17, #49, .T. ) ;
#140 = PRESENTATION_STYLE_ASSIGNMENT (( #101 ) ) ;
#141 = AXIS2_PLACEMENT_3D ( 'NONE', #61, #111, #143 ) ;
#142 = CARTESIAN_POINT ( 'NONE',  ( -907.0000000000000000, 0.0000000000000000000, 0.0000000000000000000 ) ) ;
#143 = DIRECTION ( 'NONE',  ( 0.0000000000000000000, 0.0000000000000000000, 1.000000000000000000 ) ) ;
#144 = COLOUR_RGB ( '',1.000000000000000000, 1.000000000000000000, 0.0000000000000000000 ) ;
#145 = CARTESIAN_POINT ( 'NONE',  ( 36.00000000000000000, 0.0000000000000000000, -2.800000000000005596 ) ) ;
#146 = EDGE_LOOP ( 'NONE', ( #209 ) ) ;
#147 = EDGE_CURVE ( 'NONE', #23, #23, #182, .T. ) ;
#148 = SURFACE_STYLE_USAGE ( .BOTH. , #52 ) ;
#149 = MECHANICAL_DESIGN_GEOMETRIC_PRESENTATION_REPRESENTATION (  '', ( #124 ), #104 ) ;
#150 = VERTEX_POINT ( 'NONE', #145 ) ;
#151 = MECHANICAL_DESIGN_GEOMETRIC_PRESENTATION_REPRESENTATION (  '', ( #6 ), #174 ) ;
#152 = CARTESIAN_POINT ( 'NONE',  ( -1.714505518806294145E-16, 0.0000000000000000000, 0.0000000000000000000 ) ) ;
#153 = ORIENTED_EDGE ( 'NONE', *, *, #139, .T. ) ;
#154 = DIRECTION ( 'NONE',  ( -1.000000000000000000, -0.0000000000000000000, -0.0000000000000000000 ) ) ;
#155 = EDGE_CURVE ( 'NONE', #150, #150, #187, .T. ) ;
#156 = FILL_AREA_STYLE_COLOUR ( '', #37 ) ;
#157 = DIRECTION ( 'NONE',  ( 0.0000000000000000000, 0.0000000000000000000, -1.000000000000000000 ) ) ;
#158 = SURFACE_STYLE_FILL_AREA ( #191 ) ;
#159 = CARTESIAN_POINT ( 'NONE',  ( -1.714505518806294145E-16, 2.799999999999999378, 0.0000000000000000000 ) ) ;
#160 =( NAMED_UNIT ( * ) PLANE_ANGLE_UNIT ( ) SI_UNIT ( $, .RADIAN. ) );
#161 = FACE_OUTER_BOUND ( 'NONE', #170, .T. ) ;
#162 = UNCERTAINTY_MEASURE_WITH_UNIT (LENGTH_MEASURE( 1.000000000000000082E-05 ), #51, 'distance_accuracy_value', 'NONE');
#163 =( LENGTH_UNIT ( ) NAMED_UNIT ( * ) SI_UNIT ( .MILLI., .METRE. ) );
#164 =( NAMED_UNIT ( * ) SI_UNIT ( $, .STERADIAN. ) SOLID_ANGLE_UNIT ( ) );
#165 = AXIS2_PLACEMENT_3D ( 'NONE', #152, #68, #9 ) ;
#166 = DIRECTION ( 'NONE',  ( 0.0000000000000000000, 0.0000000000000000000, -1.000000000000000000 ) ) ;
#167 = EDGE_CURVE ( 'NONE', #109, #109, #97, .T. ) ;
#168 = ADVANCED_FACE ( 'NONE', ( #3 ), #67, .T. ) ;
#169 = PRESENTATION_LAYER_ASSIGNMENT (  '', '', ( #184 ) ) ;
#170 = EDGE_LOOP ( 'NONE', ( #110 ) ) ;
#171 = CARTESIAN_POINT ( 'NONE',  ( 0.5600000000000121547, 0.0000000000000000000, -2.800000000000005596 ) ) ;
#172 = ORIENTED_EDGE ( 'NONE', *, *, #167, .T. ) ;
#173 = DIRECTION ( 'NONE',  ( 1.000000000000000000, 0.0000000000000000000, 0.0000000000000000000 ) ) ;
#174 =( GEOMETRIC_REPRESENTATION_CONTEXT ( 3 ) GLOBAL_UNCERTAINTY_ASSIGNED_CONTEXT ( ( #18 ) ) GLOBAL_UNIT_ASSIGNED_CONTEXT ( ( #163, #26, #194 ) ) REPRESENTATION_CONTEXT ( 'NONE', 'WORKASPACE' ) );
#175 = PRODUCT_DEFINITION_CONTEXT ( 'detailed design', #55, 'design' ) ;
#176 = SURFACE_STYLE_USAGE ( .BOTH. , #39 ) ;
#177 = PRESENTATION_STYLE_ASSIGNMENT (( #1 ) ) ;
#178 = EDGE_CURVE ( 'NONE', #56, #56, #119, .T. ) ;
#179 = CARTESIAN_POINT ( 'NONE',  ( 36.00000000000000000, 0.0000000000000000000, 0.0000000000000000000 ) ) ;
#180 =( NAMED_UNIT ( * ) PLANE_ANGLE_UNIT ( ) SI_UNIT ( $, .RADIAN. ) );
#181 = DIRECTION ( 'NONE',  ( 1.000000000000000000, 0.0000000000000000000, 0.0000000000000000000 ) ) ;
#182 = CIRCLE ( 'NONE', #141, 2.800000000000011369 ) ;
#183 = AXIS2_PLACEMENT_3D ( 'NONE', #189, #173, #31 ) ;
#184 = STYLED_ITEM ( 'NONE', ( #188 ), #103 ) ;
#185 = ADVANCED_FACE ( 'NONE', ( #161, #74 ), #196, .T. ) ;
#186 =( LENGTH_UNIT ( ) NAMED_UNIT ( * ) SI_UNIT ( .MILLI., .METRE. ) );
#187 = CIRCLE ( 'NONE', #41, 2.800000000000005596 ) ;
#188 = PRESENTATION_STYLE_ASSIGNMENT (( #148 ) ) ;
#189 = CARTESIAN_POINT ( 'NONE',  ( 36.00000000000000000, 0.0000000000000000000, 0.0000000000000000000 ) ) ;
#190 = CARTESIAN_POINT ( 'NONE',  ( 91.84020202535531041, 0.0000000000000000000, 2.800000000000011369 ) ) ;
#191 = FILL_AREA_STYLE ('',( #8 ) ) ;
#192 = CONICAL_SURFACE ( 'NONE', #53, 2.239999999999991775, 0.7853981633974498333 ) ;
#193 = ORIENTED_EDGE ( 'NONE', *, *, #167, .F. ) ;
#194 =( NAMED_UNIT ( * ) SI_UNIT ( $, .STERADIAN. ) SOLID_ANGLE_UNIT ( ) );
#195 =( NAMED_UNIT ( * ) SI_UNIT ( $, .STERADIAN. ) SOLID_ANGLE_UNIT ( ) );
#196 = CYLINDRICAL_SURFACE ( 'NONE', #135, 2.800000000000005596 ) ;
#197 = EDGE_LOOP ( 'NONE', ( #172 ) ) ;
#198 = AXIS2_PLACEMENT_3D ( 'NONE', #77, #64, #157 ) ;
#199 = FACE_OUTER_BOUND ( 'NONE', #120, .T. ) ;
#200 = ADVANCED_FACE ( 'NONE', ( #201, #123 ), #192, .T. ) ;
#201 = FACE_OUTER_BOUND ( 'NONE', #126, .T. ) ;
#202 = FACE_OUTER_BOUND ( 'NONE', #99, .T. ) ;
#203 = MECHANICAL_DESIGN_GEOMETRIC_PRESENTATION_REPRESENTATION (  '', ( #22 ), #213 ) ;
#204 =( NAMED_UNIT ( * ) PLANE_ANGLE_UNIT ( ) SI_UNIT ( $, .RADIAN. ) );
#205 = ORIENTED_EDGE ( 'NONE', *, *, #155, .T. ) ;
#206 = FILL_AREA_STYLE ('',( #156 ) ) ;
#207 = DIRECTION ( 'NONE',  ( 1.000000000000000000, 0.0000000000000000000, 0.0000000000000000000 ) ) ;
#208 =( GEOMETRIC_REPRESENTATION_CONTEXT ( 3 ) GLOBAL_UNCERTAINTY_ASSIGNED_CONTEXT ( ( #87 ) ) GLOBAL_UNIT_ASSIGNED_CONTEXT ( ( #186, #180, #164 ) ) REPRESENTATION_CONTEXT ( 'NONE', 'WORKASPACE' ) );
#209 = ORIENTED_EDGE ( 'NONE', *, *, #147, .F. ) ;
#210 = UNCERTAINTY_MEASURE_WITH_UNIT (LENGTH_MEASURE( 1.000000000000000082E-05 ), #127, 'distance_accuracy_value', 'NONE');
#211 = DIRECTION ( 'NONE',  ( 0.0000000000000000000, 0.0000000000000000000, -1.000000000000000000 ) ) ;
#212 =( LENGTH_UNIT ( ) NAMED_UNIT ( * ) SI_UNIT ( .MILLI., .METRE. ) );
#213 =( GEOMETRIC_REPRESENTATION_CONTEXT ( 3 ) GLOBAL_UNCERTAINTY_ASSIGNED_CONTEXT ( ( #54 ) ) GLOBAL_UNIT_ASSIGNED_CONTEXT ( ( #212, #116, #13 ) ) REPRESENTATION_CONTEXT ( 'NONE', 'WORKASPACE' ) );
ENDSEC;
END-ISO-10303-21;
