ISO-10303-21;
HEADER;
FILE_DESCRIPTION (( 'STEP AP214' ),
    '1' );
FILE_NAME ('03-1663.STEP',
    '2021-10-01T05:31:57',
    ( 'USER' ),
    ( '' ),
    'SwSTEP 2.0',
    'SolidWorks 2018',
    '' );
FILE_SCHEMA (( 'AUTOMOTIVE_DESIGN' ));
ENDSEC;

DATA;
#1 = FACE_OUTER_BOUND ( 'NONE', #15, .T. ) ;
#2 = EDGE_CURVE ( 'NONE', #164, #164, #51, .T. ) ;
#3 =( LENGTH_UNIT ( ) NAMED_UNIT ( * ) SI_UNIT ( .MILLI., .METRE. ) );
#4 =( NAMED_UNIT ( * ) PLANE_ANGLE_UNIT ( ) SI_UNIT ( $, .RADIAN. ) );
#5 = ADVANCED_BREP_SHAPE_REPRESENTATION ( '03-1663', ( #46, #179, #183 ), #163 ) ;
#6 = EDGE_LOOP ( 'NONE', ( #149 ) ) ;
#7 =( LENGTH_UNIT ( ) NAMED_UNIT ( * ) SI_UNIT ( .MILLI., .METRE. ) );
#8 = EDGE_LOOP ( 'NONE', ( #197 ) ) ;
#9 = CARTESIAN_POINT ( 'NONE',  ( 91.81949134723666361, 0.0000000000000000000, 0.0000000000000000000 ) ) ;
#10 =( NAMED_UNIT ( * ) PLANE_ANGLE_UNIT ( ) SI_UNIT ( $, .RADIAN. ) );
#11 = STYLED_ITEM ( 'NONE', ( #133 ), #20 ) ;
#12 = DIRECTION ( 'NONE',  ( -1.000000000000000000, -0.0000000000000000000, -0.0000000000000000000 ) ) ;
#13 = CIRCLE ( 'NONE', #53, 2.850000000000006306 ) ;
#14 = APPLICATION_PROTOCOL_DEFINITION ( 'draft international standard', 'automotive_design', 1998, #62 ) ;
#15 = EDGE_LOOP ( 'NONE', ( #172 ) ) ;
#16 = EDGE_CURVE ( 'NONE', #89, #89, #13, .T. ) ;
#17 = UNCERTAINTY_MEASURE_WITH_UNIT (LENGTH_MEASURE( 1.000000000000000082E-05 ), #94, 'distance_accuracy_value', 'NONE');
#18 = AXIS2_PLACEMENT_3D ( 'NONE', #181, #61, #209 ) ;
#19 = CARTESIAN_POINT ( 'NONE',  ( 0.0000000000000000000, 0.0000000000000000000, 0.0000000000000000000 ) ) ;
#20 = ADVANCED_FACE ( 'NONE', ( #49, #138 ), #23, .T. ) ;
#21 = PRESENTATION_STYLE_ASSIGNMENT (( #177 ) ) ;
#22 = AXIS2_PLACEMENT_3D ( 'NONE', #120, #79, #98 ) ;
#23 = CYLINDRICAL_SURFACE ( 'NONE', #186, 2.850000000000006306 ) ;
#24 = EDGE_LOOP ( 'NONE', ( #203 ) ) ;
#25 = CARTESIAN_POINT ( 'NONE',  ( 91.81949134723666361, 0.0000000000000000000, 2.850000000000011191 ) ) ;
#26 = VERTEX_POINT ( 'NONE', #86 ) ;
#27 = UNCERTAINTY_MEASURE_WITH_UNIT (LENGTH_MEASURE( 1.000000000000000082E-05 ), #213, 'distance_accuracy_value', 'NONE');
#28 = SURFACE_STYLE_FILL_AREA ( #44 ) ;
#29 = EDGE_LOOP ( 'NONE', ( #45 ) ) ;
#30 = UNCERTAINTY_MEASURE_WITH_UNIT (LENGTH_MEASURE( 1.000000000000000082E-05 ), #104, 'distance_accuracy_value', 'NONE');
#31 =( NAMED_UNIT ( * ) PLANE_ANGLE_UNIT ( ) SI_UNIT ( $, .RADIAN. ) );
#32 = COLOUR_RGB ( '',0.7921568627450980005, 0.8196078431372548767, 0.9333333333333333481 ) ;
#33 = PRODUCT_DEFINITION ( 'UNKNOWN', '', #157, #178 ) ;
#34 = DIRECTION ( 'NONE',  ( 0.0000000000000000000, 0.0000000000000000000, 1.000000000000000000 ) ) ;
#35 = FILL_AREA_STYLE_COLOUR ( '', #182 ) ;
#36 = CARTESIAN_POINT ( 'NONE',  ( -1.745121688784978524E-16, 0.0000000000000000000, 0.0000000000000000000 ) ) ;
#37 = EDGE_LOOP ( 'NONE', ( #136 ) ) ;
#38 = AXIS2_PLACEMENT_3D ( 'NONE', #173, #202, #115 ) ;
#39 = UNCERTAINTY_MEASURE_WITH_UNIT (LENGTH_MEASURE( 1.000000000000000082E-05 ), #7, 'distance_accuracy_value', 'NONE');
#40 = EDGE_LOOP ( 'NONE', ( #188 ) ) ;
#41 = DIRECTION ( 'NONE',  ( 0.0000000000000000000, 0.0000000000000000000, -1.000000000000000000 ) ) ;
#42 = FILL_AREA_STYLE_COLOUR ( '', #32 ) ;
#43 = ADVANCED_FACE ( 'NONE', ( #68, #83 ), #74, .T. ) ;
#44 = FILL_AREA_STYLE ('',( #42 ) ) ;
#45 = ORIENTED_EDGE ( 'NONE', *, *, #16, .T. ) ;
#46 = MANIFOLD_SOLID_BREP ( 'ºÐÇÒ2[1]', #99 ) ;
#47 = STYLED_ITEM ( 'NONE', ( #175 ), #187 ) ;
#48 = PLANE ( 'NONE',  #38 ) ;
#49 = FACE_OUTER_BOUND ( 'NONE', #37, .T. ) ;
#50 = SURFACE_STYLE_FILL_AREA ( #145 ) ;
#51 = CIRCLE ( 'NONE', #127, 2.850000000000006306 ) ;
#52 = FILL_AREA_STYLE ('',( #165 ) ) ;
#53 = AXIS2_PLACEMENT_3D ( 'NONE', #110, #125, #148 ) ;
#54 = DIRECTION ( 'NONE',  ( -1.000000000000000000, -0.0000000000000000000, -0.0000000000000000000 ) ) ;
#55 = COLOUR_RGB ( '',1.000000000000000000, 1.000000000000000000, 0.0000000000000000000 ) ;
#56 = CARTESIAN_POINT ( 'NONE',  ( 36.00000000000000000, 0.0000000000000000000, 0.0000000000000000000 ) ) ;
#57 = PRODUCT_DEFINITION_SHAPE ( 'NONE', 'NONE',  #33 ) ;
#58 = PLANE ( 'NONE',  #171 ) ;
#59 = FACE_OUTER_BOUND ( 'NONE', #8, .T. ) ;
#60 = ADVANCED_FACE ( 'NONE', ( #1 ), #58, .F. ) ;
#61 = DIRECTION ( 'NONE',  ( -1.000000000000000000, -0.0000000000000000000, -0.0000000000000000000 ) ) ;
#62 = APPLICATION_CONTEXT ( 'automotive_design' ) ;
#63 = PRESENTATION_LAYER_ASSIGNMENT (  '', '', ( #47 ) ) ;
#64 = FACE_OUTER_BOUND ( 'NONE', #6, .T. ) ;
#65 =( NAMED_UNIT ( * ) SI_UNIT ( $, .STERADIAN. ) SOLID_ANGLE_UNIT ( ) );
#66 = DIRECTION ( 'NONE',  ( 1.000000000000000000, 0.0000000000000000000, 0.0000000000000000000 ) ) ;
#67 = AXIS2_PLACEMENT_3D ( 'NONE', #162, #184, #156 ) ;
#68 = FACE_OUTER_BOUND ( 'NONE', #29, .T. ) ;
#69 = DIRECTION ( 'NONE',  ( 0.0000000000000000000, 0.0000000000000000000, 1.000000000000000000 ) ) ;
#70 = CARTESIAN_POINT ( 'NONE',  ( -1.745121688784978524E-16, 0.0000000000000000000, -2.279999999999990035 ) ) ;
#71 =( NAMED_UNIT ( * ) PLANE_ANGLE_UNIT ( ) SI_UNIT ( $, .RADIAN. ) );
#72 = CARTESIAN_POINT ( 'NONE',  ( -1.745121688784978524E-16, 0.0000000000000000000, 0.0000000000000000000 ) ) ;
#73 = SURFACE_SIDE_STYLE ('',( #90 ) ) ;
#74 = CYLINDRICAL_SURFACE ( 'NONE', #18, 2.850000000000006306 ) ;
#75 = DIRECTION ( 'NONE',  ( 0.0000000000000000000, 0.0000000000000000000, -1.000000000000000000 ) ) ;
#76 = PRESENTATION_LAYER_ASSIGNMENT (  '', '', ( #88 ) ) ;
#77 =( NAMED_UNIT ( * ) SI_UNIT ( $, .STERADIAN. ) SOLID_ANGLE_UNIT ( ) );
#78 = CARTESIAN_POINT ( 'NONE',  ( -1.745121688784978524E-16, 2.850000000000000533, 0.0000000000000000000 ) ) ;
#79 = DIRECTION ( 'NONE',  ( 1.000000000000000000, 0.0000000000000000000, 0.0000000000000000000 ) ) ;
#80 = DIRECTION ( 'NONE',  ( 0.0000000000000000000, 0.0000000000000000000, -1.000000000000000000 ) ) ;
#81 =( GEOMETRIC_REPRESENTATION_CONTEXT ( 3 ) GLOBAL_UNCERTAINTY_ASSIGNED_CONTEXT ( ( #30 ) ) GLOBAL_UNIT_ASSIGNED_CONTEXT ( ( #104, #105, #107 ) ) REPRESENTATION_CONTEXT ( 'NONE', 'WORKASPACE' ) );
#82 = DIRECTION ( 'NONE',  ( 1.000000000000000000, 0.0000000000000000000, 0.0000000000000000000 ) ) ;
#83 = FACE_OUTER_BOUND ( 'NONE', #40, .T. ) ;
#84 = CARTESIAN_POINT ( 'NONE',  ( 36.00000000000000000, 0.0000000000000000000, 0.0000000000000000000 ) ) ;
#85 = DIRECTION ( 'NONE',  ( 0.0000000000000000000, 0.0000000000000000000, -1.000000000000000000 ) ) ;
#86 = CARTESIAN_POINT ( 'NONE',  ( 36.00000000000000000, 0.0000000000000000000, -2.850000000000006306 ) ) ;
#87 = MECHANICAL_DESIGN_GEOMETRIC_PRESENTATION_REPRESENTATION (  '', ( #189 ), #134 ) ;
#88 = STYLED_ITEM ( 'NONE', ( #21 ), #5 ) ;
#89 = VERTEX_POINT ( 'NONE', #97 ) ;
#90 = SURFACE_STYLE_FILL_AREA ( #111 ) ;
#91 = DIRECTION ( 'NONE',  ( 1.000000000000000000, 0.0000000000000000000, 0.0000000000000000000 ) ) ;
#92 = MECHANICAL_DESIGN_GEOMETRIC_PRESENTATION_REPRESENTATION (  '', ( #47 ), #81 ) ;
#93 = VERTEX_POINT ( 'NONE', #25 ) ;
#94 =( LENGTH_UNIT ( ) NAMED_UNIT ( * ) SI_UNIT ( .MILLI., .METRE. ) );
#95 = VERTEX_POINT ( 'NONE', #70 ) ;
#96 = SURFACE_STYLE_USAGE ( .BOTH. , #73 ) ;
#97 = CARTESIAN_POINT ( 'NONE',  ( 0.5700000000000138289, 0.0000000000000000000, -2.850000000000006306 ) ) ;
#98 = DIRECTION ( 'NONE',  ( 0.0000000000000000000, 0.0000000000000000000, -1.000000000000000000 ) ) ;
#99 = CLOSED_SHELL ( 'NONE', ( #43, #60, #123, #174 ) ) ;
#100 =( GEOMETRIC_REPRESENTATION_CONTEXT ( 3 ) GLOBAL_UNCERTAINTY_ASSIGNED_CONTEXT ( ( #17 ) ) GLOBAL_UNIT_ASSIGNED_CONTEXT ( ( #94, #4, #142 ) ) REPRESENTATION_CONTEXT ( 'NONE', 'WORKASPACE' ) );
#101 =( GEOMETRIC_REPRESENTATION_CONTEXT ( 3 ) GLOBAL_UNCERTAINTY_ASSIGNED_CONTEXT ( ( #39 ) ) GLOBAL_UNIT_ASSIGNED_CONTEXT ( ( #7, #154, #129 ) ) REPRESENTATION_CONTEXT ( 'NONE', 'WORKASPACE' ) );
#102 = FILL_AREA_STYLE ('',( #35 ) ) ;
#103 = FACE_BOUND ( 'NONE', #169, .T. ) ;
#104 =( LENGTH_UNIT ( ) NAMED_UNIT ( * ) SI_UNIT ( .MILLI., .METRE. ) );
#105 =( NAMED_UNIT ( * ) PLANE_ANGLE_UNIT ( ) SI_UNIT ( $, .RADIAN. ) );
#106 = FACE_OUTER_BOUND ( 'NONE', #158, .T. ) ;
#107 =( NAMED_UNIT ( * ) SI_UNIT ( $, .STERADIAN. ) SOLID_ANGLE_UNIT ( ) );
#108 = SURFACE_SIDE_STYLE ('',( #192 ) ) ;
#109 = EDGE_CURVE ( 'NONE', #93, #93, #185, .T. ) ;
#110 = CARTESIAN_POINT ( 'NONE',  ( 0.5700000000000138289, 0.0000000000000000000, 0.0000000000000000000 ) ) ;
#111 = FILL_AREA_STYLE ('',( #126 ) ) ;
#112 = SURFACE_SIDE_STYLE ('',( #153 ) ) ;
#113 = DIRECTION ( 'NONE',  ( 1.000000000000000000, 0.0000000000000000000, 0.0000000000000000000 ) ) ;
#114 = COLOUR_RGB ( '',0.7921568627450980005, 0.8196078431372548767, 0.9333333333333333481 ) ;
#115 = DIRECTION ( 'NONE',  ( 0.0000000000000000000, 0.0000000000000000000, -1.000000000000000000 ) ) ;
#116 = PRODUCT_CONTEXT ( 'NONE', #62, 'mechanical' ) ;
#117 = AXIS2_PLACEMENT_3D ( 'NONE', #72, #91, #75 ) ;
#118 = CONICAL_SURFACE ( 'NONE', #117, 2.279999999999990035, 0.7853981633974501664 ) ;
#119 = MECHANICAL_DESIGN_GEOMETRIC_PRESENTATION_REPRESENTATION (  '', ( #88 ), #151 ) ;
#120 = CARTESIAN_POINT ( 'NONE',  ( 36.00000000000000000, 0.0000000000000000000, 0.0000000000000000000 ) ) ;
#121 =( LENGTH_UNIT ( ) NAMED_UNIT ( * ) SI_UNIT ( .MILLI., .METRE. ) );
#122 = SURFACE_SIDE_STYLE ('',( #28 ) ) ;
#123 = ADVANCED_FACE ( 'NONE', ( #59, #103 ), #118, .T. ) ;
#124 = COLOUR_RGB ( '',1.000000000000000000, 1.000000000000000000, 0.0000000000000000000 ) ;
#125 = DIRECTION ( 'NONE',  ( 1.000000000000000000, 0.0000000000000000000, 0.0000000000000000000 ) ) ;
#126 = FILL_AREA_STYLE_COLOUR ( '', #55 ) ;
#127 = AXIS2_PLACEMENT_3D ( 'NONE', #56, #168, #85 ) ;
#128 = PLANE ( 'NONE',  #22 ) ;
#129 =( NAMED_UNIT ( * ) SI_UNIT ( $, .STERADIAN. ) SOLID_ANGLE_UNIT ( ) );
#130 = PRODUCT_RELATED_PRODUCT_CATEGORY ( 'part', '', ( #170 ) ) ;
#131 = PRESENTATION_STYLE_ASSIGNMENT (( #159 ) ) ;
#132 = APPLICATION_CONTEXT ( 'automotive_design' ) ;
#133 = PRESENTATION_STYLE_ASSIGNMENT (( #96 ) ) ;
#134 =( GEOMETRIC_REPRESENTATION_CONTEXT ( 3 ) GLOBAL_UNCERTAINTY_ASSIGNED_CONTEXT ( ( #198 ) ) GLOBAL_UNIT_ASSIGNED_CONTEXT ( ( #3, #71, #65 ) ) REPRESENTATION_CONTEXT ( 'NONE', 'WORKASPACE' ) );
#135 = APPLICATION_PROTOCOL_DEFINITION ( 'draft international standard', 'automotive_design', 1998, #132 ) ;
#136 = ORIENTED_EDGE ( 'NONE', *, *, #196, .T. ) ;
#137 = AXIS2_PLACEMENT_3D ( 'NONE', #36, #12, #41 ) ;
#138 = FACE_OUTER_BOUND ( 'NONE', #155, .T. ) ;
#139 = ADVANCED_FACE ( 'NONE', ( #64 ), #128, .F. ) ;
#140 = CLOSED_SHELL ( 'NONE', ( #139, #20, #187 ) ) ;
#141 = PRESENTATION_STYLE_ASSIGNMENT (( #190 ) ) ;
#142 =( NAMED_UNIT ( * ) SI_UNIT ( $, .STERADIAN. ) SOLID_ANGLE_UNIT ( ) );
#143 = SHAPE_DEFINITION_REPRESENTATION ( #57, #5 ) ;
#144 = FACE_OUTER_BOUND ( 'NONE', #24, .T. ) ;
#145 = FILL_AREA_STYLE ('',( #176 ) ) ;
#146 = AXIS2_PLACEMENT_3D ( 'NONE', #84, #66, #199 ) ;
#147 =( NAMED_UNIT ( * ) SI_UNIT ( $, .STERADIAN. ) SOLID_ANGLE_UNIT ( ) );
#148 = DIRECTION ( 'NONE',  ( 0.0000000000000000000, 0.0000000000000000000, -1.000000000000000000 ) ) ;
#149 = ORIENTED_EDGE ( 'NONE', *, *, #196, .F. ) ;
#150 = DIRECTION ( 'NONE',  ( 0.0000000000000000000, 0.0000000000000000000, 1.000000000000000000 ) ) ;
#151 =( GEOMETRIC_REPRESENTATION_CONTEXT ( 3 ) GLOBAL_UNCERTAINTY_ASSIGNED_CONTEXT ( ( #27 ) ) GLOBAL_UNIT_ASSIGNED_CONTEXT ( ( #213, #10, #147 ) ) REPRESENTATION_CONTEXT ( 'NONE', 'WORKASPACE' ) );
#152 = CIRCLE ( 'NONE', #146, 2.850000000000006306 ) ;
#153 = SURFACE_STYLE_FILL_AREA ( #52 ) ;
#154 =( NAMED_UNIT ( * ) PLANE_ANGLE_UNIT ( ) SI_UNIT ( $, .RADIAN. ) );
#155 = EDGE_LOOP ( 'NONE', ( #208 ) ) ;
#156 = DIRECTION ( 'NONE',  ( 0.0000000000000000000, 0.0000000000000000000, 1.000000000000000000 ) ) ;
#157 = PRODUCT_DEFINITION_FORMATION_WITH_SPECIFIED_SOURCE ( 'ANY', '', #170, .NOT_KNOWN. ) ;
#158 = EDGE_LOOP ( 'NONE', ( #205 ) ) ;
#159 = SURFACE_STYLE_USAGE ( .BOTH. , #206 ) ;
#160 = MECHANICAL_DESIGN_GEOMETRIC_PRESENTATION_REPRESENTATION (  '', ( #180 ), #101 ) ;
#161 = DIRECTION ( 'NONE',  ( -1.000000000000000000, -0.0000000000000000000, -0.0000000000000000000 ) ) ;
#162 = CARTESIAN_POINT ( 'NONE',  ( -907.0000000000000000, 0.0000000000000000000, 0.0000000000000000000 ) ) ;
#163 =( GEOMETRIC_REPRESENTATION_CONTEXT ( 3 ) GLOBAL_UNCERTAINTY_ASSIGNED_CONTEXT ( ( #210 ) ) GLOBAL_UNIT_ASSIGNED_CONTEXT ( ( #121, #31, #77 ) ) REPRESENTATION_CONTEXT ( 'NONE', 'WORKASPACE' ) );
#164 = VERTEX_POINT ( 'NONE', #191 ) ;
#165 = FILL_AREA_STYLE_COLOUR ( '', #124 ) ;
#166 = AXIS2_PLACEMENT_3D ( 'NONE', #9, #161, #34 ) ;
#167 = CONICAL_SURFACE ( 'NONE', #67, 2414.213562373065542, 1.178097245096168200 ) ;
#168 = DIRECTION ( 'NONE',  ( 1.000000000000000000, 0.0000000000000000000, 0.0000000000000000000 ) ) ;
#169 = EDGE_LOOP ( 'NONE', ( #200 ) ) ;
#170 = PRODUCT ( '03-1663', '03-1663', '', ( #116 ) ) ;
#171 = AXIS2_PLACEMENT_3D ( 'NONE', #78, #82, #80 ) ;
#172 = ORIENTED_EDGE ( 'NONE', *, *, #207, .T. ) ;
#173 = CARTESIAN_POINT ( 'NONE',  ( 36.00000000000000000, 0.0000000000000000000, 0.0000000000000000000 ) ) ;
#174 = ADVANCED_FACE ( 'NONE', ( #144 ), #48, .T. ) ;
#175 = PRESENTATION_STYLE_ASSIGNMENT (( #201 ) ) ;
#176 = FILL_AREA_STYLE_COLOUR ( '', #114 ) ;
#177 = SURFACE_STYLE_USAGE ( .BOTH. , #122 ) ;
#178 = PRODUCT_DEFINITION_CONTEXT ( 'detailed design', #132, 'design' ) ;
#179 = MANIFOLD_SOLID_BREP ( 'ºÐÇÒ2[2]', #140 ) ;
#180 = STYLED_ITEM ( 'NONE', ( #131 ), #179 ) ;
#181 = CARTESIAN_POINT ( 'NONE',  ( 0.0000000000000000000, 0.0000000000000000000, 0.0000000000000000000 ) ) ;
#182 = COLOUR_RGB ( '',0.7921568627450980005, 0.8196078431372548767, 0.9333333333333333481 ) ;
#183 = AXIS2_PLACEMENT_3D ( 'NONE', #19, #150, #113 ) ;
#184 = DIRECTION ( 'NONE',  ( -1.000000000000000000, -0.0000000000000000000, -0.0000000000000000000 ) ) ;
#185 = CIRCLE ( 'NONE', #166, 2.850000000000011191 ) ;
#186 = AXIS2_PLACEMENT_3D ( 'NONE', #194, #54, #69 ) ;
#187 = ADVANCED_FACE ( 'NONE', ( #106 ), #167, .T. ) ;
#188 = ORIENTED_EDGE ( 'NONE', *, *, #2, .F. ) ;
#189 = STYLED_ITEM ( 'NONE', ( #141 ), #46 ) ;
#190 = SURFACE_STYLE_USAGE ( .BOTH. , #108 ) ;
#191 = CARTESIAN_POINT ( 'NONE',  ( 36.00000000000000000, 0.0000000000000000000, -2.850000000000006306 ) ) ;
#192 = SURFACE_STYLE_FILL_AREA ( #102 ) ;
#193 = MECHANICAL_DESIGN_GEOMETRIC_PRESENTATION_REPRESENTATION (  '', ( #11 ), #100 ) ;
#194 = CARTESIAN_POINT ( 'NONE',  ( 0.0000000000000000000, 0.0000000000000000000, 0.0000000000000000000 ) ) ;
#195 = PRESENTATION_LAYER_ASSIGNMENT (  '', '', ( #180 ) ) ;
#196 = EDGE_CURVE ( 'NONE', #26, #26, #152, .T. ) ;
#197 = ORIENTED_EDGE ( 'NONE', *, *, #16, .F. ) ;
#198 = UNCERTAINTY_MEASURE_WITH_UNIT (LENGTH_MEASURE( 1.000000000000000082E-05 ), #3, 'distance_accuracy_value', 'NONE');
#199 = DIRECTION ( 'NONE',  ( 0.0000000000000000000, 0.0000000000000000000, -1.000000000000000000 ) ) ;
#200 = ORIENTED_EDGE ( 'NONE', *, *, #207, .F. ) ;
#201 = SURFACE_STYLE_USAGE ( .BOTH. , #112 ) ;
#202 = DIRECTION ( 'NONE',  ( 1.000000000000000000, 0.0000000000000000000, 0.0000000000000000000 ) ) ;
#203 = ORIENTED_EDGE ( 'NONE', *, *, #2, .T. ) ;
#204 = PRESENTATION_LAYER_ASSIGNMENT (  '', '', ( #11 ) ) ;
#205 = ORIENTED_EDGE ( 'NONE', *, *, #109, .F. ) ;
#206 = SURFACE_SIDE_STYLE ('',( #50 ) ) ;
#207 = EDGE_CURVE ( 'NONE', #95, #95, #212, .T. ) ;
#208 = ORIENTED_EDGE ( 'NONE', *, *, #109, .T. ) ;
#209 = DIRECTION ( 'NONE',  ( 0.0000000000000000000, 0.0000000000000000000, 1.000000000000000000 ) ) ;
#210 = UNCERTAINTY_MEASURE_WITH_UNIT (LENGTH_MEASURE( 1.000000000000000082E-05 ), #121, 'distance_accuracy_value', 'NONE');
#211 = PRESENTATION_LAYER_ASSIGNMENT (  '', '', ( #189 ) ) ;
#212 = CIRCLE ( 'NONE', #137, 2.279999999999990035 ) ;
#213 =( LENGTH_UNIT ( ) NAMED_UNIT ( * ) SI_UNIT ( .MILLI., .METRE. ) );
ENDSEC;
END-ISO-10303-21;
