ISO-10303-21;
HEADER;
FILE_DESCRIPTION (( 'STEP AP214' ),
    '1' );
FILE_NAME ('03-1665.STEP',
    '2021-10-01T05:32:34',
    ( 'USER' ),
    ( '' ),
    'SwSTEP 2.0',
    'SolidWorks 2018',
    '' );
FILE_SCHEMA (( 'AUTOMOTIVE_DESIGN' ));
ENDSEC;

DATA;
#1 =( LENGTH_UNIT ( ) NAMED_UNIT ( * ) SI_UNIT ( .MILLI., .METRE. ) );
#2 = SURFACE_STYLE_USAGE ( .BOTH. , #140 ) ;
#3 = ORIENTED_EDGE ( 'NONE', *, *, #63, .F. ) ;
#4 = PRESENTATION_LAYER_ASSIGNMENT (  '', '', ( #181 ) ) ;
#5 = FACE_OUTER_BOUND ( 'NONE', #162, .T. ) ;
#6 = DIRECTION ( 'NONE',  ( 0.0000000000000000000, 0.0000000000000000000, 1.000000000000000000 ) ) ;
#7 = PRODUCT_DEFINITION_CONTEXT ( 'detailed design', #33, 'design' ) ;
#8 = SURFACE_STYLE_FILL_AREA ( #88 ) ;
#9 = APPLICATION_PROTOCOL_DEFINITION ( 'draft international standard', 'automotive_design', 1998, #206 ) ;
#10 = ORIENTED_EDGE ( 'NONE', *, *, #98, .T. ) ;
#11 = FACE_OUTER_BOUND ( 'NONE', #135, .T. ) ;
#12 =( NAMED_UNIT ( * ) SI_UNIT ( $, .STERADIAN. ) SOLID_ANGLE_UNIT ( ) );
#13 = PRODUCT_DEFINITION_FORMATION_WITH_SPECIFIED_SOURCE ( 'ANY', '', #50, .NOT_KNOWN. ) ;
#14 = FILL_AREA_STYLE_COLOUR ( '', #106 ) ;
#15 = PLANE ( 'NONE',  #141 ) ;
#16 = FILL_AREA_STYLE_COLOUR ( '', #71 ) ;
#17 = ADVANCED_FACE ( 'NONE', ( #52 ), #166, .T. ) ;
#18 = AXIS2_PLACEMENT_3D ( 'NONE', #125, #89, #127 ) ;
#19 = SURFACE_SIDE_STYLE ('',( #175 ) ) ;
#20 = CYLINDRICAL_SURFACE ( 'NONE', #126, 2.950000000000006395 ) ;
#21 = CARTESIAN_POINT ( 'NONE',  ( 36.00000000000000000, 0.0000000000000000000, -2.950000000000006395 ) ) ;
#22 = COLOUR_RGB ( '',0.7921568627450980005, 0.8196078431372548767, 0.9333333333333333481 ) ;
#23 = DIRECTION ( 'NONE',  ( 0.0000000000000000000, 0.0000000000000000000, -1.000000000000000000 ) ) ;
#24 = APPLICATION_PROTOCOL_DEFINITION ( 'draft international standard', 'automotive_design', 1998, #33 ) ;
#25 = DIRECTION ( 'NONE',  ( 1.000000000000000000, 0.0000000000000000000, 0.0000000000000000000 ) ) ;
#26 = STYLED_ITEM ( 'NONE', ( #203 ), #134 ) ;
#27 = PRODUCT_CONTEXT ( 'NONE', #206, 'mechanical' ) ;
#28 = AXIS2_PLACEMENT_3D ( 'NONE', #87, #170, #69 ) ;
#29 = FILL_AREA_STYLE_COLOUR ( '', #154 ) ;
#30 = DIRECTION ( 'NONE',  ( 1.000000000000000000, 0.0000000000000000000, 0.0000000000000000000 ) ) ;
#31 =( NAMED_UNIT ( * ) PLANE_ANGLE_UNIT ( ) SI_UNIT ( $, .RADIAN. ) );
#32 = AXIS2_PLACEMENT_3D ( 'NONE', #75, #6, #30 ) ;
#33 = APPLICATION_CONTEXT ( 'automotive_design' ) ;
#34 = FILL_AREA_STYLE ('',( #14 ) ) ;
#35 = ADVANCED_FACE ( 'NONE', ( #137 ), #49, .F. ) ;
#36 = DIRECTION ( 'NONE',  ( 0.0000000000000000000, 0.0000000000000000000, -1.000000000000000000 ) ) ;
#37 =( NAMED_UNIT ( * ) SI_UNIT ( $, .STERADIAN. ) SOLID_ANGLE_UNIT ( ) );
#38 = SURFACE_STYLE_FILL_AREA ( #34 ) ;
#39 = CARTESIAN_POINT ( 'NONE',  ( -1.806354028742346048E-16, 0.0000000000000000000, 0.0000000000000000000 ) ) ;
#40 = EDGE_LOOP ( 'NONE', ( #10 ) ) ;
#41 = STYLED_ITEM ( 'NONE', ( #198 ), #84 ) ;
#42 =( NAMED_UNIT ( * ) PLANE_ANGLE_UNIT ( ) SI_UNIT ( $, .RADIAN. ) );
#43 = CLOSED_SHELL ( 'NONE', ( #185, #149, #104, #17 ) ) ;
#44 = CARTESIAN_POINT ( 'NONE',  ( 36.00000000000000000, 0.0000000000000000000, 0.0000000000000000000 ) ) ;
#45 = ORIENTED_EDGE ( 'NONE', *, *, #53, .T. ) ;
#46 = CARTESIAN_POINT ( 'NONE',  ( 36.00000000000000000, 0.0000000000000000000, 0.0000000000000000000 ) ) ;
#47 = DIRECTION ( 'NONE',  ( 0.0000000000000000000, 0.0000000000000000000, -1.000000000000000000 ) ) ;
#48 = PRESENTATION_STYLE_ASSIGNMENT (( #122 ) ) ;
#49 = PLANE ( 'NONE',  #136 ) ;
#50 = PRODUCT ( '03-1665', '03-1665', '', ( #27 ) ) ;
#51 = DIRECTION ( 'NONE',  ( -1.000000000000000000, -0.0000000000000000000, -0.0000000000000000000 ) ) ;
#52 = FACE_OUTER_BOUND ( 'NONE', #40, .T. ) ;
#53 = EDGE_CURVE ( 'NONE', #139, #139, #95, .T. ) ;
#54 = SURFACE_STYLE_USAGE ( .BOTH. , #152 ) ;
#55 = UNCERTAINTY_MEASURE_WITH_UNIT (LENGTH_MEASURE( 1.000000000000000082E-05 ), #81, 'distance_accuracy_value', 'NONE');
#56 = FACE_OUTER_BOUND ( 'NONE', #212, .T. ) ;
#57 =( LENGTH_UNIT ( ) NAMED_UNIT ( * ) SI_UNIT ( .MILLI., .METRE. ) );
#58 = CARTESIAN_POINT ( 'NONE',  ( 91.77806999099935581, 0.0000000000000000000, 2.950000000000011724 ) ) ;
#59 = CARTESIAN_POINT ( 'NONE',  ( -1.806354028742346048E-16, 0.0000000000000000000, -2.360000000000001208 ) ) ;
#60 = DIRECTION ( 'NONE',  ( 1.000000000000000000, 0.0000000000000000000, 0.0000000000000000000 ) ) ;
#61 = PRESENTATION_LAYER_ASSIGNMENT (  '', '', ( #132 ) ) ;
#62 = DIRECTION ( 'NONE',  ( -1.000000000000000000, -0.0000000000000000000, -0.0000000000000000000 ) ) ;
#63 = EDGE_CURVE ( 'NONE', #176, #176, #189, .T. ) ;
#64 = DIRECTION ( 'NONE',  ( -1.000000000000000000, -0.0000000000000000000, -0.0000000000000000000 ) ) ;
#65 = CARTESIAN_POINT ( 'NONE',  ( 0.0000000000000000000, 0.0000000000000000000, 0.0000000000000000000 ) ) ;
#66 = DIRECTION ( 'NONE',  ( 0.0000000000000000000, 0.0000000000000000000, 1.000000000000000000 ) ) ;
#67 =( LENGTH_UNIT ( ) NAMED_UNIT ( * ) SI_UNIT ( .MILLI., .METRE. ) );
#68 = CARTESIAN_POINT ( 'NONE',  ( 36.00000000000000000, 0.0000000000000000000, 0.0000000000000000000 ) ) ;
#69 = DIRECTION ( 'NONE',  ( 0.0000000000000000000, 0.0000000000000000000, 1.000000000000000000 ) ) ;
#70 = AXIS2_PLACEMENT_3D ( 'NONE', #190, #117, #66 ) ;
#71 = COLOUR_RGB ( '',1.000000000000000000, 1.000000000000000000, 0.0000000000000000000 ) ;
#72 = ORIENTED_EDGE ( 'NONE', *, *, #63, .T. ) ;
#73 = EDGE_CURVE ( 'NONE', #150, #150, #142, .T. ) ;
#74 =( NAMED_UNIT ( * ) PLANE_ANGLE_UNIT ( ) SI_UNIT ( $, .RADIAN. ) );
#75 = CARTESIAN_POINT ( 'NONE',  ( 0.0000000000000000000, 0.0000000000000000000, 0.0000000000000000000 ) ) ;
#76 = ORIENTED_EDGE ( 'NONE', *, *, #73, .T. ) ;
#77 = FILL_AREA_STYLE_COLOUR ( '', #157 ) ;
#78 = CARTESIAN_POINT ( 'NONE',  ( 0.5900000000000026334, 0.0000000000000000000, -2.950000000000006395 ) ) ;
#79 = CIRCLE ( 'NONE', #116, 2.950000000000006395 ) ;
#80 = PRESENTATION_LAYER_ASSIGNMENT (  '', '', ( #41 ) ) ;
#81 =( LENGTH_UNIT ( ) NAMED_UNIT ( * ) SI_UNIT ( .MILLI., .METRE. ) );
#82 = CLOSED_SHELL ( 'NONE', ( #35, #163, #84 ) ) ;
#83 =( NAMED_UNIT ( * ) SI_UNIT ( $, .STERADIAN. ) SOLID_ANGLE_UNIT ( ) );
#84 = ADVANCED_FACE ( 'NONE', ( #56 ), #102, .T. ) ;
#85 = EDGE_CURVE ( 'NONE', #113, #113, #211, .T. ) ;
#86 =( NAMED_UNIT ( * ) SI_UNIT ( $, .STERADIAN. ) SOLID_ANGLE_UNIT ( ) );
#87 = CARTESIAN_POINT ( 'NONE',  ( 91.77806999099935581, 0.0000000000000000000, 0.0000000000000000000 ) ) ;
#88 = FILL_AREA_STYLE ('',( #29 ) ) ;
#89 = DIRECTION ( 'NONE',  ( 1.000000000000000000, 0.0000000000000000000, 0.0000000000000000000 ) ) ;
#90 = ORIENTED_EDGE ( 'NONE', *, *, #98, .F. ) ;
#91 = EDGE_LOOP ( 'NONE', ( #45 ) ) ;
#92 = AXIS2_PLACEMENT_3D ( 'NONE', #39, #25, #36 ) ;
#93 = EDGE_LOOP ( 'NONE', ( #72 ) ) ;
#94 = AXIS2_PLACEMENT_3D ( 'NONE', #173, #123, #47 ) ;
#95 = CIRCLE ( 'NONE', #94, 2.950000000000006395 ) ;
#96 = MANIFOLD_SOLID_BREP ( 'ºÐÇÒ2[2]', #82 ) ;
#97 = FILL_AREA_STYLE ('',( #158 ) ) ;
#98 = EDGE_CURVE ( 'NONE', #118, #118, #79, .T. ) ;
#99 = FACE_OUTER_BOUND ( 'NONE', #93, .T. ) ;
#100 = FACE_OUTER_BOUND ( 'NONE', #91, .T. ) ;
#101 = EDGE_LOOP ( 'NONE', ( #130 ) ) ;
#102 = CONICAL_SURFACE ( 'NONE', #144, 2414.213562373078275, 1.178097245096169976 ) ;
#103 = PRESENTATION_LAYER_ASSIGNMENT (  '', '', ( #26 ) ) ;
#104 = ADVANCED_FACE ( 'NONE', ( #183, #124 ), #119, .T. ) ;
#105 = DIRECTION ( 'NONE',  ( 0.0000000000000000000, 0.0000000000000000000, -1.000000000000000000 ) ) ;
#106 = COLOUR_RGB ( '',0.7921568627450980005, 0.8196078431372548767, 0.9333333333333333481 ) ;
#107 = DIRECTION ( 'NONE',  ( 1.000000000000000000, 0.0000000000000000000, 0.0000000000000000000 ) ) ;
#108 = PRODUCT_DEFINITION_SHAPE ( 'NONE', 'NONE',  #208 ) ;
#109 = DIRECTION ( 'NONE',  ( 1.000000000000000000, 0.0000000000000000000, 0.0000000000000000000 ) ) ;
#110 = SURFACE_STYLE_USAGE ( .BOTH. , #205 ) ;
#111 = DIRECTION ( 'NONE',  ( 0.0000000000000000000, 0.0000000000000000000, 1.000000000000000000 ) ) ;
#112 = DIRECTION ( 'NONE',  ( 0.0000000000000000000, 0.0000000000000000000, -1.000000000000000000 ) ) ;
#113 = VERTEX_POINT ( 'NONE', #121 ) ;
#114 = CARTESIAN_POINT ( 'NONE',  ( -1.806354028742346048E-16, 2.950000000000000622, 0.0000000000000000000 ) ) ;
#115 =( NAMED_UNIT ( * ) SI_UNIT ( $, .STERADIAN. ) SOLID_ANGLE_UNIT ( ) );
#116 = AXIS2_PLACEMENT_3D ( 'NONE', #44, #177, #105 ) ;
#117 = DIRECTION ( 'NONE',  ( -1.000000000000000000, -0.0000000000000000000, -0.0000000000000000000 ) ) ;
#118 = VERTEX_POINT ( 'NONE', #21 ) ;
#119 = CONICAL_SURFACE ( 'NONE', #92, 2.360000000000001208, 0.7853981633974504994 ) ;
#120 = UNCERTAINTY_MEASURE_WITH_UNIT (LENGTH_MEASURE( 1.000000000000000082E-05 ), #201, 'distance_accuracy_value', 'NONE');
#121 = CARTESIAN_POINT ( 'NONE',  ( 36.00000000000000000, 0.0000000000000000000, -2.950000000000006395 ) ) ;
#122 = SURFACE_STYLE_USAGE ( .BOTH. , #19 ) ;
#123 = DIRECTION ( 'NONE',  ( 1.000000000000000000, 0.0000000000000000000, 0.0000000000000000000 ) ) ;
#124 = FACE_BOUND ( 'NONE', #133, .T. ) ;
#125 = CARTESIAN_POINT ( 'NONE',  ( 36.00000000000000000, 0.0000000000000000000, 0.0000000000000000000 ) ) ;
#126 = AXIS2_PLACEMENT_3D ( 'NONE', #65, #62, #111 ) ;
#127 = DIRECTION ( 'NONE',  ( 0.0000000000000000000, 0.0000000000000000000, -1.000000000000000000 ) ) ;
#128 = EDGE_LOOP ( 'NONE', ( #204 ) ) ;
#129 = MECHANICAL_DESIGN_GEOMETRIC_PRESENTATION_REPRESENTATION (  '', ( #26 ), #207 ) ;
#130 = ORIENTED_EDGE ( 'NONE', *, *, #85, .T. ) ;
#131 = ORIENTED_EDGE ( 'NONE', *, *, #53, .F. ) ;
#132 = STYLED_ITEM ( 'NONE', ( #48 ), #163 ) ;
#133 = EDGE_LOOP ( 'NONE', ( #3 ) ) ;
#134 = MANIFOLD_SOLID_BREP ( 'ºÐÇÒ2[1]', #43 ) ;
#135 = EDGE_LOOP ( 'NONE', ( #90 ) ) ;
#136 = AXIS2_PLACEMENT_3D ( 'NONE', #68, #60, #179 ) ;
#137 = FACE_OUTER_BOUND ( 'NONE', #128, .T. ) ;
#138 = UNCERTAINTY_MEASURE_WITH_UNIT (LENGTH_MEASURE( 1.000000000000000082E-05 ), #1, 'distance_accuracy_value', 'NONE');
#139 = VERTEX_POINT ( 'NONE', #78 ) ;
#140 = SURFACE_SIDE_STYLE ('',( #195 ) ) ;
#141 = AXIS2_PLACEMENT_3D ( 'NONE', #114, #109, #151 ) ;
#142 = CIRCLE ( 'NONE', #28, 2.950000000000011724 ) ;
#143 = PRESENTATION_STYLE_ASSIGNMENT (( #54 ) ) ;
#144 = AXIS2_PLACEMENT_3D ( 'NONE', #160, #64, #165 ) ;
#145 = CYLINDRICAL_SURFACE ( 'NONE', #70, 2.950000000000006395 ) ;
#146 = MECHANICAL_DESIGN_GEOMETRIC_PRESENTATION_REPRESENTATION (  '', ( #41 ), #184 ) ;
#147 = UNCERTAINTY_MEASURE_WITH_UNIT (LENGTH_MEASURE( 1.000000000000000082E-05 ), #57, 'distance_accuracy_value', 'NONE');
#148 = PRESENTATION_STYLE_ASSIGNMENT (( #110 ) ) ;
#149 = ADVANCED_FACE ( 'NONE', ( #99 ), #15, .F. ) ;
#150 = VERTEX_POINT ( 'NONE', #58 ) ;
#151 = DIRECTION ( 'NONE',  ( 0.0000000000000000000, 0.0000000000000000000, -1.000000000000000000 ) ) ;
#152 = SURFACE_SIDE_STYLE ('',( #38 ) ) ;
#153 = PRESENTATION_LAYER_ASSIGNMENT (  '', '', ( #161 ) ) ;
#154 = COLOUR_RGB ( '',1.000000000000000000, 1.000000000000000000, 0.0000000000000000000 ) ;
#155 =( NAMED_UNIT ( * ) SI_UNIT ( $, .STERADIAN. ) SOLID_ANGLE_UNIT ( ) );
#156 = AXIS2_PLACEMENT_3D ( 'NONE', #167, #51, #23 ) ;
#157 = COLOUR_RGB ( '',0.7921568627450980005, 0.8196078431372548767, 0.9333333333333333481 ) ;
#158 = FILL_AREA_STYLE_COLOUR ( '', #22 ) ;
#159 =( GEOMETRIC_REPRESENTATION_CONTEXT ( 3 ) GLOBAL_UNCERTAINTY_ASSIGNED_CONTEXT ( ( #55 ) ) GLOBAL_UNIT_ASSIGNED_CONTEXT ( ( #81, #194, #115 ) ) REPRESENTATION_CONTEXT ( 'NONE', 'WORKASPACE' ) );
#160 = CARTESIAN_POINT ( 'NONE',  ( -907.0000000000000000, 0.0000000000000000000, 0.0000000000000000000 ) ) ;
#161 = STYLED_ITEM ( 'NONE', ( #143 ), #209 ) ;
#162 = EDGE_LOOP ( 'NONE', ( #76 ) ) ;
#163 = ADVANCED_FACE ( 'NONE', ( #169, #5 ), #145, .T. ) ;
#164 = MECHANICAL_DESIGN_GEOMETRIC_PRESENTATION_REPRESENTATION (  '', ( #181 ), #191 ) ;
#165 = DIRECTION ( 'NONE',  ( 0.0000000000000000000, 0.0000000000000000000, 1.000000000000000000 ) ) ;
#166 = PLANE ( 'NONE',  #196 ) ;
#167 = CARTESIAN_POINT ( 'NONE',  ( -1.806354028742346048E-16, 0.0000000000000000000, 0.0000000000000000000 ) ) ;
#168 =( LENGTH_UNIT ( ) NAMED_UNIT ( * ) SI_UNIT ( .MILLI., .METRE. ) );
#169 = FACE_OUTER_BOUND ( 'NONE', #101, .T. ) ;
#170 = DIRECTION ( 'NONE',  ( -1.000000000000000000, -0.0000000000000000000, -0.0000000000000000000 ) ) ;
#171 =( GEOMETRIC_REPRESENTATION_CONTEXT ( 3 ) GLOBAL_UNCERTAINTY_ASSIGNED_CONTEXT ( ( #120 ) ) GLOBAL_UNIT_ASSIGNED_CONTEXT ( ( #201, #213, #83 ) ) REPRESENTATION_CONTEXT ( 'NONE', 'WORKASPACE' ) );
#172 =( NAMED_UNIT ( * ) PLANE_ANGLE_UNIT ( ) SI_UNIT ( $, .RADIAN. ) );
#173 = CARTESIAN_POINT ( 'NONE',  ( 0.5900000000000026334, 0.0000000000000000000, 0.0000000000000000000 ) ) ;
#174 = EDGE_LOOP ( 'NONE', ( #131 ) ) ;
#175 = SURFACE_STYLE_FILL_AREA ( #210 ) ;
#176 = VERTEX_POINT ( 'NONE', #59 ) ;
#177 = DIRECTION ( 'NONE',  ( 1.000000000000000000, 0.0000000000000000000, 0.0000000000000000000 ) ) ;
#178 = UNCERTAINTY_MEASURE_WITH_UNIT (LENGTH_MEASURE( 1.000000000000000082E-05 ), #168, 'distance_accuracy_value', 'NONE');
#179 = DIRECTION ( 'NONE',  ( 0.0000000000000000000, 0.0000000000000000000, -1.000000000000000000 ) ) ;
#180 = ORIENTED_EDGE ( 'NONE', *, *, #73, .F. ) ;
#181 = STYLED_ITEM ( 'NONE', ( #148 ), #96 ) ;
#182 = MECHANICAL_DESIGN_GEOMETRIC_PRESENTATION_REPRESENTATION (  '', ( #132 ), #171 ) ;
#183 = FACE_OUTER_BOUND ( 'NONE', #174, .T. ) ;
#184 =( GEOMETRIC_REPRESENTATION_CONTEXT ( 3 ) GLOBAL_UNCERTAINTY_ASSIGNED_CONTEXT ( ( #138 ) ) GLOBAL_UNIT_ASSIGNED_CONTEXT ( ( #1, #172, #155 ) ) REPRESENTATION_CONTEXT ( 'NONE', 'WORKASPACE' ) );
#185 = ADVANCED_FACE ( 'NONE', ( #100, #11 ), #20, .T. ) ;
#186 = SURFACE_STYLE_USAGE ( .BOTH. , #202 ) ;
#187 = FILL_AREA_STYLE ('',( #77 ) ) ;
#188 = MECHANICAL_DESIGN_GEOMETRIC_PRESENTATION_REPRESENTATION (  '', ( #161 ), #200 ) ;
#189 = CIRCLE ( 'NONE', #156, 2.360000000000001208 ) ;
#190 = CARTESIAN_POINT ( 'NONE',  ( 0.0000000000000000000, 0.0000000000000000000, 0.0000000000000000000 ) ) ;
#191 =( GEOMETRIC_REPRESENTATION_CONTEXT ( 3 ) GLOBAL_UNCERTAINTY_ASSIGNED_CONTEXT ( ( #199 ) ) GLOBAL_UNIT_ASSIGNED_CONTEXT ( ( #67, #42, #12 ) ) REPRESENTATION_CONTEXT ( 'NONE', 'WORKASPACE' ) );
#192 = SHAPE_DEFINITION_REPRESENTATION ( #108, #209 ) ;
#193 = SURFACE_STYLE_FILL_AREA ( #97 ) ;
#194 =( NAMED_UNIT ( * ) PLANE_ANGLE_UNIT ( ) SI_UNIT ( $, .RADIAN. ) );
#195 = SURFACE_STYLE_FILL_AREA ( #187 ) ;
#196 = AXIS2_PLACEMENT_3D ( 'NONE', #46, #107, #112 ) ;
#197 = PRODUCT_RELATED_PRODUCT_CATEGORY ( 'part', '', ( #50 ) ) ;
#198 = PRESENTATION_STYLE_ASSIGNMENT (( #186 ) ) ;
#199 = UNCERTAINTY_MEASURE_WITH_UNIT (LENGTH_MEASURE( 1.000000000000000082E-05 ), #67, 'distance_accuracy_value', 'NONE');
#200 =( GEOMETRIC_REPRESENTATION_CONTEXT ( 3 ) GLOBAL_UNCERTAINTY_ASSIGNED_CONTEXT ( ( #147 ) ) GLOBAL_UNIT_ASSIGNED_CONTEXT ( ( #57, #31, #37 ) ) REPRESENTATION_CONTEXT ( 'NONE', 'WORKASPACE' ) );
#201 =( LENGTH_UNIT ( ) NAMED_UNIT ( * ) SI_UNIT ( .MILLI., .METRE. ) );
#202 = SURFACE_SIDE_STYLE ('',( #8 ) ) ;
#203 = PRESENTATION_STYLE_ASSIGNMENT (( #2 ) ) ;
#204 = ORIENTED_EDGE ( 'NONE', *, *, #85, .F. ) ;
#205 = SURFACE_SIDE_STYLE ('',( #193 ) ) ;
#206 = APPLICATION_CONTEXT ( 'automotive_design' ) ;
#207 =( GEOMETRIC_REPRESENTATION_CONTEXT ( 3 ) GLOBAL_UNCERTAINTY_ASSIGNED_CONTEXT ( ( #178 ) ) GLOBAL_UNIT_ASSIGNED_CONTEXT ( ( #168, #74, #86 ) ) REPRESENTATION_CONTEXT ( 'NONE', 'WORKASPACE' ) );
#208 = PRODUCT_DEFINITION ( 'UNKNOWN', '', #13, #7 ) ;
#209 = ADVANCED_BREP_SHAPE_REPRESENTATION ( '03-1665', ( #134, #96, #32 ), #159 ) ;
#210 = FILL_AREA_STYLE ('',( #16 ) ) ;
#211 = CIRCLE ( 'NONE', #18, 2.950000000000006395 ) ;
#212 = EDGE_LOOP ( 'NONE', ( #180 ) ) ;
#213 =( NAMED_UNIT ( * ) PLANE_ANGLE_UNIT ( ) SI_UNIT ( $, .RADIAN. ) );
ENDSEC;
END-ISO-10303-21;
