ISO-10303-21;
HEADER;
FILE_DESCRIPTION (( 'STEP AP214' ),
    '1' );
FILE_NAME ('03-1668.STEP',
    '2021-10-01T05:33:31',
    ( 'USER' ),
    ( '' ),
    'SwSTEP 2.0',
    'SolidWorks 2018',
    '' );
FILE_SCHEMA (( 'AUTOMOTIVE_DESIGN' ));
ENDSEC;

DATA;
#1 = MANIFOLD_SOLID_BREP ( 'ºÐÇÒ2[2]', #13 ) ;
#2 = EDGE_CURVE ( 'NONE', #7, #7, #101, .T. ) ;
#3 = PRODUCT_DEFINITION_CONTEXT ( 'detailed design', #177, 'design' ) ;
#4 = ADVANCED_FACE ( 'NONE', ( #78 ), #55, .T. ) ;
#5 = EDGE_LOOP ( 'NONE', ( #10 ) ) ;
#6 = ORIENTED_EDGE ( 'NONE', *, *, #181, .T. ) ;
#7 = VERTEX_POINT ( 'NONE', #111 ) ;
#8 = ORIENTED_EDGE ( 'NONE', *, *, #2, .T. ) ;
#9 = MECHANICAL_DESIGN_GEOMETRIC_PRESENTATION_REPRESENTATION (  '', ( #206 ), #132 ) ;
#10 = ORIENTED_EDGE ( 'NONE', *, *, #2, .F. ) ;
#11 =( NAMED_UNIT ( * ) PLANE_ANGLE_UNIT ( ) SI_UNIT ( $, .RADIAN. ) );
#12 = SURFACE_SIDE_STYLE ('',( #99 ) ) ;
#13 = CLOSED_SHELL ( 'NONE', ( #197, #164, #24 ) ) ;
#14 =( NAMED_UNIT ( * ) PLANE_ANGLE_UNIT ( ) SI_UNIT ( $, .RADIAN. ) );
#15 = EDGE_LOOP ( 'NONE', ( #44 ) ) ;
#16 = STYLED_ITEM ( 'NONE', ( #144 ), #1 ) ;
#17 = FILL_AREA_STYLE ('',( #154 ) ) ;
#18 =( NAMED_UNIT ( * ) SI_UNIT ( $, .STERADIAN. ) SOLID_ANGLE_UNIT ( ) );
#19 = MECHANICAL_DESIGN_GEOMETRIC_PRESENTATION_REPRESENTATION (  '', ( #119 ), #195 ) ;
#20 = CARTESIAN_POINT ( 'NONE',  ( 0.0000000000000000000, 0.0000000000000000000, 0.0000000000000000000 ) ) ;
#21 = CARTESIAN_POINT ( 'NONE',  ( 99.71593795664338700, 0.0000000000000000000, 0.0000000000000000000 ) ) ;
#22 = FACE_OUTER_BOUND ( 'NONE', #51, .T. ) ;
#23 = PRESENTATION_LAYER_ASSIGNMENT (  '', '', ( #206 ) ) ;
#24 = ADVANCED_FACE ( 'NONE', ( #25 ), #130, .T. ) ;
#25 = FACE_OUTER_BOUND ( 'NONE', #56, .T. ) ;
#26 = CARTESIAN_POINT ( 'NONE',  ( -1.898202538678397212E-16, 0.0000000000000000000, 0.0000000000000000000 ) ) ;
#27 = EDGE_LOOP ( 'NONE', ( #8 ) ) ;
#28 = DIRECTION ( 'NONE',  ( 0.0000000000000000000, 0.0000000000000000000, -1.000000000000000000 ) ) ;
#29 = UNCERTAINTY_MEASURE_WITH_UNIT (LENGTH_MEASURE( 1.000000000000000082E-05 ), #124, 'distance_accuracy_value', 'NONE');
#30 = AXIS2_PLACEMENT_3D ( 'NONE', #158, #211, #57 ) ;
#31 = SURFACE_STYLE_USAGE ( .BOTH. , #12 ) ;
#32 = EDGE_LOOP ( 'NONE', ( #84 ) ) ;
#33 = DIRECTION ( 'NONE',  ( 0.0000000000000000000, 0.0000000000000000000, -1.000000000000000000 ) ) ;
#34 = FILL_AREA_STYLE_COLOUR ( '', #131 ) ;
#35 = CYLINDRICAL_SURFACE ( 'NONE', #48, 3.100000000000005862 ) ;
#36 = SURFACE_STYLE_USAGE ( .BOTH. , #151 ) ;
#37 = SURFACE_STYLE_USAGE ( .BOTH. , #153 ) ;
#38 = CARTESIAN_POINT ( 'NONE',  ( -1.898202538678397212E-16, 0.0000000000000000000, -2.480000000000010196 ) ) ;
#39 = FILL_AREA_STYLE_COLOUR ( '', #79 ) ;
#40 = DIRECTION ( 'NONE',  ( 0.0000000000000000000, 0.0000000000000000000, 1.000000000000000000 ) ) ;
#41 = CARTESIAN_POINT ( 'NONE',  ( 99.71593795664338700, 0.0000000000000000000, 3.100000000000012079 ) ) ;
#42 = AXIS2_PLACEMENT_3D ( 'NONE', #87, #198, #49 ) ;
#43 = EDGE_LOOP ( 'NONE', ( #64 ) ) ;
#44 = ORIENTED_EDGE ( 'NONE', *, *, #187, .F. ) ;
#45 = VERTEX_POINT ( 'NONE', #209 ) ;
#46 = UNCERTAINTY_MEASURE_WITH_UNIT (LENGTH_MEASURE( 1.000000000000000082E-05 ), #135, 'distance_accuracy_value', 'NONE');
#47 = DIRECTION ( 'NONE',  ( -1.000000000000000000, -0.0000000000000000000, -0.0000000000000000000 ) ) ;
#48 = AXIS2_PLACEMENT_3D ( 'NONE', #72, #47, #125 ) ;
#49 = DIRECTION ( 'NONE',  ( 0.0000000000000000000, 0.0000000000000000000, -1.000000000000000000 ) ) ;
#50 = ORIENTED_EDGE ( 'NONE', *, *, #199, .T. ) ;
#51 = EDGE_LOOP ( 'NONE', ( #6 ) ) ;
#52 = FILL_AREA_STYLE ('',( #34 ) ) ;
#53 = FACE_OUTER_BOUND ( 'NONE', #43, .T. ) ;
#54 = DIRECTION ( 'NONE',  ( -1.000000000000000000, -0.0000000000000000000, -0.0000000000000000000 ) ) ;
#55 = PLANE ( 'NONE',  #174 ) ;
#56 = EDGE_LOOP ( 'NONE', ( #98 ) ) ;
#57 = DIRECTION ( 'NONE',  ( 0.0000000000000000000, 0.0000000000000000000, -1.000000000000000000 ) ) ;
#58 = ORIENTED_EDGE ( 'NONE', *, *, #194, .F. ) ;
#59 = EDGE_LOOP ( 'NONE', ( #83 ) ) ;
#60 = CARTESIAN_POINT ( 'NONE',  ( 38.00000000000000711, 0.0000000000000000000, -3.100000000000005862 ) ) ;
#61 = CLOSED_SHELL ( 'NONE', ( #146, #180, #82, #4 ) ) ;
#62 = VERTEX_POINT ( 'NONE', #38 ) ;
#63 = FACE_OUTER_BOUND ( 'NONE', #114, .T. ) ;
#64 = ORIENTED_EDGE ( 'NONE', *, *, #187, .T. ) ;
#65 = AXIS2_PLACEMENT_3D ( 'NONE', #134, #54, #86 ) ;
#66 = CIRCLE ( 'NONE', #30, 3.100000000000005862 ) ;
#67 = AXIS2_PLACEMENT_3D ( 'NONE', #188, #141, #28 ) ;
#68 = COLOUR_RGB ( '',0.7921568627450980005, 0.8196078431372548767, 0.9333333333333333481 ) ;
#69 = UNCERTAINTY_MEASURE_WITH_UNIT (LENGTH_MEASURE( 1.000000000000000082E-05 ), #205, 'distance_accuracy_value', 'NONE');
#70 = PRESENTATION_LAYER_ASSIGNMENT (  '', '', ( #119 ) ) ;
#71 = FACE_OUTER_BOUND ( 'NONE', #85, .T. ) ;
#72 = CARTESIAN_POINT ( 'NONE',  ( 0.0000000000000000000, 0.0000000000000000000, 0.0000000000000000000 ) ) ;
#73 = DIRECTION ( 'NONE',  ( 0.0000000000000000000, 0.0000000000000000000, -1.000000000000000000 ) ) ;
#74 =( NAMED_UNIT ( * ) PLANE_ANGLE_UNIT ( ) SI_UNIT ( $, .RADIAN. ) );
#75 = PRESENTATION_LAYER_ASSIGNMENT (  '', '', ( #89 ) ) ;
#76 = SURFACE_STYLE_USAGE ( .BOTH. , #94 ) ;
#77 = VERTEX_POINT ( 'NONE', #41 ) ;
#78 = FACE_OUTER_BOUND ( 'NONE', #59, .T. ) ;
#79 = COLOUR_RGB ( '',0.7921568627450980005, 0.8196078431372548767, 0.9333333333333333481 ) ;
#80 = PRESENTATION_STYLE_ASSIGNMENT (( #76 ) ) ;
#81 =( GEOMETRIC_REPRESENTATION_CONTEXT ( 3 ) GLOBAL_UNCERTAINTY_ASSIGNED_CONTEXT ( ( #143 ) ) GLOBAL_UNIT_ASSIGNED_CONTEXT ( ( #139, #109, #18 ) ) REPRESENTATION_CONTEXT ( 'NONE', 'WORKASPACE' ) );
#82 = ADVANCED_FACE ( 'NONE', ( #115, #120 ), #142, .T. ) ;
#83 = ORIENTED_EDGE ( 'NONE', *, *, #194, .T. ) ;
#84 = ORIENTED_EDGE ( 'NONE', *, *, #181, .F. ) ;
#85 = EDGE_LOOP ( 'NONE', ( #50 ) ) ;
#86 = DIRECTION ( 'NONE',  ( 0.0000000000000000000, 0.0000000000000000000, 1.000000000000000000 ) ) ;
#87 = CARTESIAN_POINT ( 'NONE',  ( 38.00000000000000711, 0.0000000000000000000, 0.0000000000000000000 ) ) ;
#88 = MECHANICAL_DESIGN_GEOMETRIC_PRESENTATION_REPRESENTATION (  '', ( #97 ), #108 ) ;
#89 = STYLED_ITEM ( 'NONE', ( #80 ), #165 ) ;
#90 = PRODUCT ( '03-1668', '03-1668', '', ( #201 ) ) ;
#91 = DIRECTION ( 'NONE',  ( 1.000000000000000000, 0.0000000000000000000, 0.0000000000000000000 ) ) ;
#92 = AXIS2_PLACEMENT_3D ( 'NONE', #26, #116, #33 ) ;
#93 = APPLICATION_PROTOCOL_DEFINITION ( 'draft international standard', 'automotive_design', 1998, #156 ) ;
#94 = SURFACE_SIDE_STYLE ('',( #160 ) ) ;
#95 = AXIS2_PLACEMENT_3D ( 'NONE', #21, #129, #213 ) ;
#96 = COLOUR_RGB ( '',1.000000000000000000, 1.000000000000000000, 0.0000000000000000000 ) ;
#97 = STYLED_ITEM ( 'NONE', ( #157 ), #105 ) ;
#98 = ORIENTED_EDGE ( 'NONE', *, *, #199, .F. ) ;
#99 = SURFACE_STYLE_FILL_AREA ( #171 ) ;
#100 = PRESENTATION_STYLE_ASSIGNMENT (( #31 ) ) ;
#101 = CIRCLE ( 'NONE', #179, 3.100000000000005862 ) ;
#102 = CARTESIAN_POINT ( 'NONE',  ( 0.0000000000000000000, 0.0000000000000000000, 0.0000000000000000000 ) ) ;
#103 = SHAPE_DEFINITION_REPRESENTATION ( #112, #165 ) ;
#104 =( NAMED_UNIT ( * ) PLANE_ANGLE_UNIT ( ) SI_UNIT ( $, .RADIAN. ) );
#105 = MANIFOLD_SOLID_BREP ( 'ºÐÇÒ2[1]', #61 ) ;
#106 = CARTESIAN_POINT ( 'NONE',  ( 38.00000000000000711, 0.0000000000000000000, 0.0000000000000000000 ) ) ;
#107 = SURFACE_STYLE_USAGE ( .BOTH. , #166 ) ;
#108 =( GEOMETRIC_REPRESENTATION_CONTEXT ( 3 ) GLOBAL_UNCERTAINTY_ASSIGNED_CONTEXT ( ( #128 ) ) GLOBAL_UNIT_ASSIGNED_CONTEXT ( ( #133, #11, #122 ) ) REPRESENTATION_CONTEXT ( 'NONE', 'WORKASPACE' ) );
#109 =( NAMED_UNIT ( * ) PLANE_ANGLE_UNIT ( ) SI_UNIT ( $, .RADIAN. ) );
#110 = MECHANICAL_DESIGN_GEOMETRIC_PRESENTATION_REPRESENTATION (  '', ( #89 ), #202 ) ;
#111 = CARTESIAN_POINT ( 'NONE',  ( 0.6199999999999932232, 0.0000000000000000000, -3.100000000000005862 ) ) ;
#112 = PRODUCT_DEFINITION_SHAPE ( 'NONE', 'NONE',  #162 ) ;
#113 =( NAMED_UNIT ( * ) SI_UNIT ( $, .STERADIAN. ) SOLID_ANGLE_UNIT ( ) );
#114 = EDGE_LOOP ( 'NONE', ( #58 ) ) ;
#115 = FACE_OUTER_BOUND ( 'NONE', #5, .T. ) ;
#116 = DIRECTION ( 'NONE',  ( -1.000000000000000000, -0.0000000000000000000, -0.0000000000000000000 ) ) ;
#117 = PRODUCT_RELATED_PRODUCT_CATEGORY ( 'part', '', ( #90 ) ) ;
#118 = VERTEX_POINT ( 'NONE', #60 ) ;
#119 = STYLED_ITEM ( 'NONE', ( #100 ), #24 ) ;
#120 = FACE_BOUND ( 'NONE', #32, .T. ) ;
#121 = CIRCLE ( 'NONE', #42, 3.100000000000005862 ) ;
#122 =( NAMED_UNIT ( * ) SI_UNIT ( $, .STERADIAN. ) SOLID_ANGLE_UNIT ( ) );
#123 =( NAMED_UNIT ( * ) SI_UNIT ( $, .STERADIAN. ) SOLID_ANGLE_UNIT ( ) );
#124 =( LENGTH_UNIT ( ) NAMED_UNIT ( * ) SI_UNIT ( .MILLI., .METRE. ) );
#125 = DIRECTION ( 'NONE',  ( 0.0000000000000000000, 0.0000000000000000000, 1.000000000000000000 ) ) ;
#126 = FILL_AREA_STYLE ('',( #39 ) ) ;
#127 = AXIS2_PLACEMENT_3D ( 'NONE', #149, #196, #208 ) ;
#128 = UNCERTAINTY_MEASURE_WITH_UNIT (LENGTH_MEASURE( 1.000000000000000082E-05 ), #133, 'distance_accuracy_value', 'NONE');
#129 = DIRECTION ( 'NONE',  ( -1.000000000000000000, -0.0000000000000000000, -0.0000000000000000000 ) ) ;
#130 = CONICAL_SURFACE ( 'NONE', #65, 2414.213562373070545, 1.178097245096168866 ) ;
#131 = COLOUR_RGB ( '',0.7921568627450980005, 0.8196078431372548767, 0.9333333333333333481 ) ;
#132 =( GEOMETRIC_REPRESENTATION_CONTEXT ( 3 ) GLOBAL_UNCERTAINTY_ASSIGNED_CONTEXT ( ( #29 ) ) GLOBAL_UNIT_ASSIGNED_CONTEXT ( ( #124, #74, #207 ) ) REPRESENTATION_CONTEXT ( 'NONE', 'WORKASPACE' ) );
#133 =( LENGTH_UNIT ( ) NAMED_UNIT ( * ) SI_UNIT ( .MILLI., .METRE. ) );
#134 = CARTESIAN_POINT ( 'NONE',  ( -899.0000000000000000, 0.0000000000000000000, 0.0000000000000000000 ) ) ;
#135 =( LENGTH_UNIT ( ) NAMED_UNIT ( * ) SI_UNIT ( .MILLI., .METRE. ) );
#136 = CARTESIAN_POINT ( 'NONE',  ( 0.6199999999999932232, 0.0000000000000000000, 0.0000000000000000000 ) ) ;
#137 = FACE_OUTER_BOUND ( 'NONE', #27, .T. ) ;
#138 = AXIS2_PLACEMENT_3D ( 'NONE', #193, #204, #73 ) ;
#139 =( LENGTH_UNIT ( ) NAMED_UNIT ( * ) SI_UNIT ( .MILLI., .METRE. ) );
#140 = CYLINDRICAL_SURFACE ( 'NONE', #145, 3.100000000000005862 ) ;
#141 = DIRECTION ( 'NONE',  ( 1.000000000000000000, 0.0000000000000000000, 0.0000000000000000000 ) ) ;
#142 = CONICAL_SURFACE ( 'NONE', #138, 2.480000000000010196, 0.7853981633974503884 ) ;
#143 = UNCERTAINTY_MEASURE_WITH_UNIT (LENGTH_MEASURE( 1.000000000000000082E-05 ), #139, 'distance_accuracy_value', 'NONE');
#144 = PRESENTATION_STYLE_ASSIGNMENT (( #37 ) ) ;
#145 = AXIS2_PLACEMENT_3D ( 'NONE', #102, #183, #189 ) ;
#146 = ADVANCED_FACE ( 'NONE', ( #137, #63 ), #140, .T. ) ;
#147 = AXIS2_PLACEMENT_3D ( 'NONE', #20, #40, #185 ) ;
#148 = PRESENTATION_LAYER_ASSIGNMENT (  '', '', ( #97 ) ) ;
#149 = CARTESIAN_POINT ( 'NONE',  ( 38.00000000000000711, 0.0000000000000000000, 0.0000000000000000000 ) ) ;
#150 = CIRCLE ( 'NONE', #95, 3.100000000000012079 ) ;
#151 = SURFACE_SIDE_STYLE ('',( #161 ) ) ;
#152 = FILL_AREA_STYLE_COLOUR ( '', #96 ) ;
#153 = SURFACE_SIDE_STYLE ('',( #175 ) ) ;
#154 = FILL_AREA_STYLE_COLOUR ( '', #68 ) ;
#155 = UNCERTAINTY_MEASURE_WITH_UNIT (LENGTH_MEASURE( 1.000000000000000082E-05 ), #176, 'distance_accuracy_value', 'NONE');
#156 = APPLICATION_CONTEXT ( 'automotive_design' ) ;
#157 = PRESENTATION_STYLE_ASSIGNMENT (( #36 ) ) ;
#158 = CARTESIAN_POINT ( 'NONE',  ( 38.00000000000000711, 0.0000000000000000000, 0.0000000000000000000 ) ) ;
#159 =( GEOMETRIC_REPRESENTATION_CONTEXT ( 3 ) GLOBAL_UNCERTAINTY_ASSIGNED_CONTEXT ( ( #46 ) ) GLOBAL_UNIT_ASSIGNED_CONTEXT ( ( #135, #14, #123 ) ) REPRESENTATION_CONTEXT ( 'NONE', 'WORKASPACE' ) );
#160 = SURFACE_STYLE_FILL_AREA ( #126 ) ;
#161 = SURFACE_STYLE_FILL_AREA ( #52 ) ;
#162 = PRODUCT_DEFINITION ( 'UNKNOWN', '', #163, #3 ) ;
#163 = PRODUCT_DEFINITION_FORMATION_WITH_SPECIFIED_SOURCE ( 'ANY', '', #90, .NOT_KNOWN. ) ;
#164 = ADVANCED_FACE ( 'NONE', ( #53, #71 ), #35, .T. ) ;
#165 = ADVANCED_BREP_SHAPE_REPRESENTATION ( '03-1668', ( #105, #1, #147 ), #81 ) ;
#166 = SURFACE_SIDE_STYLE ('',( #167 ) ) ;
#167 = SURFACE_STYLE_FILL_AREA ( #170 ) ;
#168 = PLANE ( 'NONE',  #127 ) ;
#169 = FACE_OUTER_BOUND ( 'NONE', #15, .T. ) ;
#170 = FILL_AREA_STYLE ('',( #182 ) ) ;
#171 = FILL_AREA_STYLE ('',( #152 ) ) ;
#172 = PRESENTATION_STYLE_ASSIGNMENT (( #107 ) ) ;
#173 = PLANE ( 'NONE',  #67 ) ;
#174 = AXIS2_PLACEMENT_3D ( 'NONE', #106, #91, #184 ) ;
#175 = SURFACE_STYLE_FILL_AREA ( #17 ) ;
#176 =( LENGTH_UNIT ( ) NAMED_UNIT ( * ) SI_UNIT ( .MILLI., .METRE. ) );
#177 = APPLICATION_CONTEXT ( 'automotive_design' ) ;
#178 = DIRECTION ( 'NONE',  ( 1.000000000000000000, 0.0000000000000000000, 0.0000000000000000000 ) ) ;
#179 = AXIS2_PLACEMENT_3D ( 'NONE', #136, #178, #191 ) ;
#180 = ADVANCED_FACE ( 'NONE', ( #22 ), #173, .F. ) ;
#181 = EDGE_CURVE ( 'NONE', #62, #62, #210, .T. ) ;
#182 = FILL_AREA_STYLE_COLOUR ( '', #203 ) ;
#183 = DIRECTION ( 'NONE',  ( -1.000000000000000000, -0.0000000000000000000, -0.0000000000000000000 ) ) ;
#184 = DIRECTION ( 'NONE',  ( 0.0000000000000000000, 0.0000000000000000000, -1.000000000000000000 ) ) ;
#185 = DIRECTION ( 'NONE',  ( 1.000000000000000000, 0.0000000000000000000, 0.0000000000000000000 ) ) ;
#186 = MECHANICAL_DESIGN_GEOMETRIC_PRESENTATION_REPRESENTATION (  '', ( #16 ), #159 ) ;
#187 = EDGE_CURVE ( 'NONE', #45, #45, #121, .T. ) ;
#188 = CARTESIAN_POINT ( 'NONE',  ( -1.898202538678397212E-16, 3.100000000000000089, 0.0000000000000000000 ) ) ;
#189 = DIRECTION ( 'NONE',  ( 0.0000000000000000000, 0.0000000000000000000, 1.000000000000000000 ) ) ;
#190 =( NAMED_UNIT ( * ) SI_UNIT ( $, .STERADIAN. ) SOLID_ANGLE_UNIT ( ) );
#191 = DIRECTION ( 'NONE',  ( 0.0000000000000000000, 0.0000000000000000000, -1.000000000000000000 ) ) ;
#192 = PRESENTATION_LAYER_ASSIGNMENT (  '', '', ( #16 ) ) ;
#193 = CARTESIAN_POINT ( 'NONE',  ( -1.898202538678397212E-16, 0.0000000000000000000, 0.0000000000000000000 ) ) ;
#194 = EDGE_CURVE ( 'NONE', #118, #118, #66, .T. ) ;
#195 =( GEOMETRIC_REPRESENTATION_CONTEXT ( 3 ) GLOBAL_UNCERTAINTY_ASSIGNED_CONTEXT ( ( #69 ) ) GLOBAL_UNIT_ASSIGNED_CONTEXT ( ( #205, #104, #190 ) ) REPRESENTATION_CONTEXT ( 'NONE', 'WORKASPACE' ) );
#196 = DIRECTION ( 'NONE',  ( 1.000000000000000000, 0.0000000000000000000, 0.0000000000000000000 ) ) ;
#197 = ADVANCED_FACE ( 'NONE', ( #169 ), #168, .F. ) ;
#198 = DIRECTION ( 'NONE',  ( 1.000000000000000000, 0.0000000000000000000, 0.0000000000000000000 ) ) ;
#199 = EDGE_CURVE ( 'NONE', #77, #77, #150, .T. ) ;
#200 = APPLICATION_PROTOCOL_DEFINITION ( 'draft international standard', 'automotive_design', 1998, #177 ) ;
#201 = PRODUCT_CONTEXT ( 'NONE', #156, 'mechanical' ) ;
#202 =( GEOMETRIC_REPRESENTATION_CONTEXT ( 3 ) GLOBAL_UNCERTAINTY_ASSIGNED_CONTEXT ( ( #155 ) ) GLOBAL_UNIT_ASSIGNED_CONTEXT ( ( #176, #212, #113 ) ) REPRESENTATION_CONTEXT ( 'NONE', 'WORKASPACE' ) );
#203 = COLOUR_RGB ( '',1.000000000000000000, 1.000000000000000000, 0.0000000000000000000 ) ;
#204 = DIRECTION ( 'NONE',  ( 1.000000000000000000, 0.0000000000000000000, 0.0000000000000000000 ) ) ;
#205 =( LENGTH_UNIT ( ) NAMED_UNIT ( * ) SI_UNIT ( .MILLI., .METRE. ) );
#206 = STYLED_ITEM ( 'NONE', ( #172 ), #164 ) ;
#207 =( NAMED_UNIT ( * ) SI_UNIT ( $, .STERADIAN. ) SOLID_ANGLE_UNIT ( ) );
#208 = DIRECTION ( 'NONE',  ( 0.0000000000000000000, 0.0000000000000000000, -1.000000000000000000 ) ) ;
#209 = CARTESIAN_POINT ( 'NONE',  ( 38.00000000000000711, 0.0000000000000000000, -3.100000000000005862 ) ) ;
#210 = CIRCLE ( 'NONE', #92, 2.480000000000010196 ) ;
#211 = DIRECTION ( 'NONE',  ( 1.000000000000000000, 0.0000000000000000000, 0.0000000000000000000 ) ) ;
#212 =( NAMED_UNIT ( * ) PLANE_ANGLE_UNIT ( ) SI_UNIT ( $, .RADIAN. ) );
#213 = DIRECTION ( 'NONE',  ( 0.0000000000000000000, 0.0000000000000000000, 1.000000000000000000 ) ) ;
ENDSEC;
END-ISO-10303-21;
