ISO-10303-21;
HEADER;
FILE_DESCRIPTION (( 'STEP AP214' ),
    '1' );
FILE_NAME ('03-1669.STEP',
    '2021-10-01T05:33:49',
    ( 'USER' ),
    ( '' ),
    'SwSTEP 2.0',
    'SolidWorks 2018',
    '' );
FILE_SCHEMA (( 'AUTOMOTIVE_DESIGN' ));
ENDSEC;

DATA;
#1 = DIRECTION ( 'NONE',  ( 0.0000000000000000000, 0.0000000000000000000, -1.000000000000000000 ) ) ;
#2 = COLOUR_RGB ( '',1.000000000000000000, 1.000000000000000000, 0.0000000000000000000 ) ;
#3 = UNCERTAINTY_MEASURE_WITH_UNIT (LENGTH_MEASURE( 1.000000000000000082E-05 ), #173, 'distance_accuracy_value', 'NONE');
#4 = CARTESIAN_POINT ( 'NONE',  ( -1.928818708657081344E-16, 3.149999999999999911, 0.0000000000000000000 ) ) ;
#5 =( LENGTH_UNIT ( ) NAMED_UNIT ( * ) SI_UNIT ( .MILLI., .METRE. ) );
#6 = DIRECTION ( 'NONE',  ( -1.000000000000000000, -0.0000000000000000000, -0.0000000000000000000 ) ) ;
#7 = EDGE_CURVE ( 'NONE', #133, #133, #39, .T. ) ;
#8 = CARTESIAN_POINT ( 'NONE',  ( 38.00000000000000711, 0.0000000000000000000, 0.0000000000000000000 ) ) ;
#9 = CARTESIAN_POINT ( 'NONE',  ( 38.00000000000000711, 0.0000000000000000000, -3.150000000000006128 ) ) ;
#10 =( NAMED_UNIT ( * ) PLANE_ANGLE_UNIT ( ) SI_UNIT ( $, .RADIAN. ) );
#11 = CYLINDRICAL_SURFACE ( 'NONE', #67, 3.150000000000006128 ) ;
#12 = ORIENTED_EDGE ( 'NONE', *, *, #22, .F. ) ;
#13 = CARTESIAN_POINT ( 'NONE',  ( 0.6299999999999941203, 0.0000000000000000000, 0.0000000000000000000 ) ) ;
#14 = ADVANCED_FACE ( 'NONE', ( #50, #43 ), #98, .T. ) ;
#15 =( LENGTH_UNIT ( ) NAMED_UNIT ( * ) SI_UNIT ( .MILLI., .METRE. ) );
#16 = PLANE ( 'NONE',  #170 ) ;
#17 = SURFACE_SIDE_STYLE ('',( #115 ) ) ;
#18 = FACE_OUTER_BOUND ( 'NONE', #78, .T. ) ;
#19 = ORIENTED_EDGE ( 'NONE', *, *, #7, .F. ) ;
#20 =( GEOMETRIC_REPRESENTATION_CONTEXT ( 3 ) GLOBAL_UNCERTAINTY_ASSIGNED_CONTEXT ( ( #101 ) ) GLOBAL_UNIT_ASSIGNED_CONTEXT ( ( #5, #97, #135 ) ) REPRESENTATION_CONTEXT ( 'NONE', 'WORKASPACE' ) );
#21 = MANIFOLD_SOLID_BREP ( 'ºÐÇÒ2[1]', #199 ) ;
#22 = EDGE_CURVE ( 'NONE', #49, #49, #185, .T. ) ;
#23 = PRODUCT ( '03-1669', '03-1669', '', ( #62 ) ) ;
#24 = EDGE_LOOP ( 'NONE', ( #195 ) ) ;
#25 = CARTESIAN_POINT ( 'NONE',  ( 0.0000000000000000000, 0.0000000000000000000, 0.0000000000000000000 ) ) ;
#26 = ORIENTED_EDGE ( 'NONE', *, *, #34, .T. ) ;
#27 = PRESENTATION_LAYER_ASSIGNMENT (  '', '', ( #61 ) ) ;
#28 = ADVANCED_FACE ( 'NONE', ( #82 ), #16, .F. ) ;
#29 = PRESENTATION_STYLE_ASSIGNMENT (( #176 ) ) ;
#30 = ORIENTED_EDGE ( 'NONE', *, *, #211, .F. ) ;
#31 = CARTESIAN_POINT ( 'NONE',  ( 38.00000000000000711, 0.0000000000000000000, 0.0000000000000000000 ) ) ;
#32 = DIRECTION ( 'NONE',  ( 0.0000000000000000000, 0.0000000000000000000, -1.000000000000000000 ) ) ;
#33 = FACE_OUTER_BOUND ( 'NONE', #197, .T. ) ;
#34 = EDGE_CURVE ( 'NONE', #212, #212, #151, .T. ) ;
#35 = FILL_AREA_STYLE ('',( #54 ) ) ;
#36 = PRESENTATION_STYLE_ASSIGNMENT (( #114 ) ) ;
#37 = STYLED_ITEM ( 'NONE', ( #204 ), #76 ) ;
#38 = DIRECTION ( 'NONE',  ( 0.0000000000000000000, 0.0000000000000000000, -1.000000000000000000 ) ) ;
#39 = CIRCLE ( 'NONE', #112, 3.150000000000006128 ) ;
#40 = PRODUCT_DEFINITION_SHAPE ( 'NONE', 'NONE',  #131 ) ;
#41 = DIRECTION ( 'NONE',  ( -1.000000000000000000, -0.0000000000000000000, -0.0000000000000000000 ) ) ;
#42 = SHAPE_DEFINITION_REPRESENTATION ( #40, #116 ) ;
#43 = FACE_OUTER_BOUND ( 'NONE', #68, .T. ) ;
#44 = FILL_AREA_STYLE ('',( #77 ) ) ;
#45 = SURFACE_SIDE_STYLE ('',( #87 ) ) ;
#46 = MECHANICAL_DESIGN_GEOMETRIC_PRESENTATION_REPRESENTATION (  '', ( #37 ), #140 ) ;
#47 = DIRECTION ( 'NONE',  ( -1.000000000000000000, -0.0000000000000000000, -0.0000000000000000000 ) ) ;
#48 = UNCERTAINTY_MEASURE_WITH_UNIT (LENGTH_MEASURE( 1.000000000000000082E-05 ), #127, 'distance_accuracy_value', 'NONE');
#49 = VERTEX_POINT ( 'NONE', #9 ) ;
#50 = FACE_OUTER_BOUND ( 'NONE', #213, .T. ) ;
#51 = DIRECTION ( 'NONE',  ( 0.0000000000000000000, 0.0000000000000000000, -1.000000000000000000 ) ) ;
#52 = CONICAL_SURFACE ( 'NONE', #125, 2414.213562373076911, 1.178097245096169754 ) ;
#53 = AXIS2_PLACEMENT_3D ( 'NONE', #194, #6, #99 ) ;
#54 = FILL_AREA_STYLE_COLOUR ( '', #209 ) ;
#55 = DIRECTION ( 'NONE',  ( 1.000000000000000000, 0.0000000000000000000, 0.0000000000000000000 ) ) ;
#56 = SURFACE_STYLE_USAGE ( .BOTH. , #86 ) ;
#57 =( GEOMETRIC_REPRESENTATION_CONTEXT ( 3 ) GLOBAL_UNCERTAINTY_ASSIGNED_CONTEXT ( ( #111 ) ) GLOBAL_UNIT_ASSIGNED_CONTEXT ( ( #198, #79, #74 ) ) REPRESENTATION_CONTEXT ( 'NONE', 'WORKASPACE' ) );
#58 = CARTESIAN_POINT ( 'NONE',  ( 0.6299999999999941203, 0.0000000000000000000, -3.150000000000006128 ) ) ;
#59 = FACE_OUTER_BOUND ( 'NONE', #154, .T. ) ;
#60 = DIRECTION ( 'NONE',  ( 1.000000000000000000, 0.0000000000000000000, 0.0000000000000000000 ) ) ;
#61 = STYLED_ITEM ( 'NONE', ( #36 ), #14 ) ;
#62 = PRODUCT_CONTEXT ( 'NONE', #89, 'mechanical' ) ;
#63 = PRESENTATION_STYLE_ASSIGNMENT (( #172 ) ) ;
#64 = CARTESIAN_POINT ( 'NONE',  ( 99.69522727852474020, 0.0000000000000000000, 0.0000000000000000000 ) ) ;
#65 = MANIFOLD_SOLID_BREP ( 'ºÐÇÒ2[2]', #126 ) ;
#66 = DIRECTION ( 'NONE',  ( 0.0000000000000000000, 0.0000000000000000000, -1.000000000000000000 ) ) ;
#67 = AXIS2_PLACEMENT_3D ( 'NONE', #177, #41, #144 ) ;
#68 = EDGE_LOOP ( 'NONE', ( #139 ) ) ;
#69 = AXIS2_PLACEMENT_3D ( 'NONE', #121, #60, #207 ) ;
#70 =( NAMED_UNIT ( * ) SI_UNIT ( $, .STERADIAN. ) SOLID_ANGLE_UNIT ( ) );
#71 = SURFACE_STYLE_FILL_AREA ( #88 ) ;
#72 = PLANE ( 'NONE',  #81 ) ;
#73 = DIRECTION ( 'NONE',  ( 0.0000000000000000000, 0.0000000000000000000, -1.000000000000000000 ) ) ;
#74 =( NAMED_UNIT ( * ) SI_UNIT ( $, .STERADIAN. ) SOLID_ANGLE_UNIT ( ) );
#75 = PRESENTATION_LAYER_ASSIGNMENT (  '', '', ( #85 ) ) ;
#76 = ADVANCED_FACE ( 'NONE', ( #33 ), #52, .T. ) ;
#77 = FILL_AREA_STYLE_COLOUR ( '', #96 ) ;
#78 = EDGE_LOOP ( 'NONE', ( #12 ) ) ;
#79 =( NAMED_UNIT ( * ) PLANE_ANGLE_UNIT ( ) SI_UNIT ( $, .RADIAN. ) );
#80 = UNCERTAINTY_MEASURE_WITH_UNIT (LENGTH_MEASURE( 1.000000000000000082E-05 ), #157, 'distance_accuracy_value', 'NONE');
#81 = AXIS2_PLACEMENT_3D ( 'NONE', #8, #188, #66 ) ;
#82 = FACE_OUTER_BOUND ( 'NONE', #24, .T. ) ;
#83 = DIRECTION ( 'NONE',  ( 0.0000000000000000000, 0.0000000000000000000, 1.000000000000000000 ) ) ;
#84 = CONICAL_SURFACE ( 'NONE', #69, 2.520000000000022666, 0.7853981633974396193 ) ;
#85 = STYLED_ITEM ( 'NONE', ( #29 ), #116 ) ;
#86 = SURFACE_SIDE_STYLE ('',( #175 ) ) ;
#87 = SURFACE_STYLE_FILL_AREA ( #102 ) ;
#88 = FILL_AREA_STYLE ('',( #119 ) ) ;
#89 = APPLICATION_CONTEXT ( 'automotive_design' ) ;
#90 = ADVANCED_FACE ( 'NONE', ( #59, #18 ), #11, .T. ) ;
#91 = FILL_AREA_STYLE ('',( #109 ) ) ;
#92 = CIRCLE ( 'NONE', #53, 2.520000000000022666 ) ;
#93 = CARTESIAN_POINT ( 'NONE',  ( -899.0000000000000000, 0.0000000000000000000, 0.0000000000000000000 ) ) ;
#94 = STYLED_ITEM ( 'NONE', ( #63 ), #21 ) ;
#95 = FACE_OUTER_BOUND ( 'NONE', #106, .T. ) ;
#96 = COLOUR_RGB ( '',1.000000000000000000, 1.000000000000000000, 0.0000000000000000000 ) ;
#97 =( NAMED_UNIT ( * ) PLANE_ANGLE_UNIT ( ) SI_UNIT ( $, .RADIAN. ) );
#98 = CYLINDRICAL_SURFACE ( 'NONE', #203, 3.150000000000006128 ) ;
#99 = DIRECTION ( 'NONE',  ( 0.0000000000000000000, 0.0000000000000000000, -1.000000000000000000 ) ) ;
#100 = EDGE_CURVE ( 'NONE', #171, #171, #92, .T. ) ;
#101 = UNCERTAINTY_MEASURE_WITH_UNIT (LENGTH_MEASURE( 1.000000000000000082E-05 ), #5, 'distance_accuracy_value', 'NONE');
#102 = FILL_AREA_STYLE ('',( #147 ) ) ;
#103 = ADVANCED_FACE ( 'NONE', ( #145 ), #72, .F. ) ;
#104 = MECHANICAL_DESIGN_GEOMETRIC_PRESENTATION_REPRESENTATION (  '', ( #85 ), #148 ) ;
#105 = DIRECTION ( 'NONE',  ( 1.000000000000000000, 0.0000000000000000000, 0.0000000000000000000 ) ) ;
#106 = EDGE_LOOP ( 'NONE', ( #162 ) ) ;
#107 = DIRECTION ( 'NONE',  ( 0.0000000000000000000, 0.0000000000000000000, 1.000000000000000000 ) ) ;
#108 = PRESENTATION_LAYER_ASSIGNMENT (  '', '', ( #187 ) ) ;
#109 = FILL_AREA_STYLE_COLOUR ( '', #136 ) ;
#110 = EDGE_LOOP ( 'NONE', ( #150 ) ) ;
#111 = UNCERTAINTY_MEASURE_WITH_UNIT (LENGTH_MEASURE( 1.000000000000000082E-05 ), #198, 'distance_accuracy_value', 'NONE');
#112 = AXIS2_PLACEMENT_3D ( 'NONE', #31, #105, #32 ) ;
#113 = PRODUCT_RELATED_PRODUCT_CATEGORY ( 'part', '', ( #23 ) ) ;
#114 = SURFACE_STYLE_USAGE ( .BOTH. , #149 ) ;
#115 = SURFACE_STYLE_FILL_AREA ( #35 ) ;
#116 = ADVANCED_BREP_SHAPE_REPRESENTATION ( '03-1669', ( #21, #65, #156 ), #178 ) ;
#117 = CARTESIAN_POINT ( 'NONE',  ( 38.00000000000000711, 0.0000000000000000000, 0.0000000000000000000 ) ) ;
#118 = AXIS2_PLACEMENT_3D ( 'NONE', #13, #192, #38 ) ;
#119 = FILL_AREA_STYLE_COLOUR ( '', #190 ) ;
#120 = APPLICATION_PROTOCOL_DEFINITION ( 'draft international standard', 'automotive_design', 1998, #89 ) ;
#121 = CARTESIAN_POINT ( 'NONE',  ( -1.928818708657081344E-16, 0.0000000000000000000, 0.0000000000000000000 ) ) ;
#122 = DIRECTION ( 'NONE',  ( 1.000000000000000000, 0.0000000000000000000, 0.0000000000000000000 ) ) ;
#123 = DIRECTION ( 'NONE',  ( 1.000000000000000000, 0.0000000000000000000, 0.0000000000000000000 ) ) ;
#124 = VERTEX_POINT ( 'NONE', #163 ) ;
#125 = AXIS2_PLACEMENT_3D ( 'NONE', #93, #47, #159 ) ;
#126 = CLOSED_SHELL ( 'NONE', ( #103, #14, #76 ) ) ;
#127 =( LENGTH_UNIT ( ) NAMED_UNIT ( * ) SI_UNIT ( .MILLI., .METRE. ) );
#128 = PRESENTATION_STYLE_ASSIGNMENT (( #56 ) ) ;
#129 =( NAMED_UNIT ( * ) PLANE_ANGLE_UNIT ( ) SI_UNIT ( $, .RADIAN. ) );
#130 = AXIS2_PLACEMENT_3D ( 'NONE', #64, #169, #83 ) ;
#131 = PRODUCT_DEFINITION ( 'UNKNOWN', '', #152, #164 ) ;
#132 = DIRECTION ( 'NONE',  ( -1.000000000000000000, -0.0000000000000000000, -0.0000000000000000000 ) ) ;
#133 = VERTEX_POINT ( 'NONE', #174 ) ;
#134 = ORIENTED_EDGE ( 'NONE', *, *, #7, .T. ) ;
#135 =( NAMED_UNIT ( * ) SI_UNIT ( $, .STERADIAN. ) SOLID_ANGLE_UNIT ( ) );
#136 = COLOUR_RGB ( '',0.7921568627450980005, 0.8196078431372548767, 0.9333333333333333481 ) ;
#137 = MECHANICAL_DESIGN_GEOMETRIC_PRESENTATION_REPRESENTATION (  '', ( #187 ), #57 ) ;
#138 = FACE_OUTER_BOUND ( 'NONE', #110, .T. ) ;
#139 = ORIENTED_EDGE ( 'NONE', *, *, #211, .T. ) ;
#140 =( GEOMETRIC_REPRESENTATION_CONTEXT ( 3 ) GLOBAL_UNCERTAINTY_ASSIGNED_CONTEXT ( ( #141 ) ) GLOBAL_UNIT_ASSIGNED_CONTEXT ( ( #15, #129, #70 ) ) REPRESENTATION_CONTEXT ( 'NONE', 'WORKASPACE' ) );
#141 = UNCERTAINTY_MEASURE_WITH_UNIT (LENGTH_MEASURE( 1.000000000000000082E-05 ), #15, 'distance_accuracy_value', 'NONE');
#142 = DIRECTION ( 'NONE',  ( 0.0000000000000000000, 0.0000000000000000000, 1.000000000000000000 ) ) ;
#143 = AXIS2_PLACEMENT_3D ( 'NONE', #182, #55, #73 ) ;
#144 = DIRECTION ( 'NONE',  ( 0.0000000000000000000, 0.0000000000000000000, 1.000000000000000000 ) ) ;
#145 = FACE_OUTER_BOUND ( 'NONE', #206, .T. ) ;
#146 = CARTESIAN_POINT ( 'NONE',  ( 0.0000000000000000000, 0.0000000000000000000, 0.0000000000000000000 ) ) ;
#147 = FILL_AREA_STYLE_COLOUR ( '', #2 ) ;
#148 =( GEOMETRIC_REPRESENTATION_CONTEXT ( 3 ) GLOBAL_UNCERTAINTY_ASSIGNED_CONTEXT ( ( #3 ) ) GLOBAL_UNIT_ASSIGNED_CONTEXT ( ( #173, #179, #205 ) ) REPRESENTATION_CONTEXT ( 'NONE', 'WORKASPACE' ) );
#149 = SURFACE_SIDE_STYLE ('',( #168 ) ) ;
#150 = ORIENTED_EDGE ( 'NONE', *, *, #22, .T. ) ;
#151 = CIRCLE ( 'NONE', #118, 3.150000000000006128 ) ;
#152 = PRODUCT_DEFINITION_FORMATION_WITH_SPECIFIED_SOURCE ( 'ANY', '', #23, .NOT_KNOWN. ) ;
#153 = APPLICATION_PROTOCOL_DEFINITION ( 'draft international standard', 'automotive_design', 1998, #165 ) ;
#154 = EDGE_LOOP ( 'NONE', ( #26 ) ) ;
#155 = MECHANICAL_DESIGN_GEOMETRIC_PRESENTATION_REPRESENTATION (  '', ( #94 ), #183 ) ;
#156 = AXIS2_PLACEMENT_3D ( 'NONE', #146, #142, #158 ) ;
#157 =( LENGTH_UNIT ( ) NAMED_UNIT ( * ) SI_UNIT ( .MILLI., .METRE. ) );
#158 = DIRECTION ( 'NONE',  ( 1.000000000000000000, 0.0000000000000000000, 0.0000000000000000000 ) ) ;
#159 = DIRECTION ( 'NONE',  ( 0.0000000000000000000, 0.0000000000000000000, 1.000000000000000000 ) ) ;
#160 = ADVANCED_FACE ( 'NONE', ( #138 ), #166, .T. ) ;
#161 = PRESENTATION_LAYER_ASSIGNMENT (  '', '', ( #37 ) ) ;
#162 = ORIENTED_EDGE ( 'NONE', *, *, #34, .F. ) ;
#163 = CARTESIAN_POINT ( 'NONE',  ( 99.69522727852474020, 0.0000000000000000000, 3.150000000000012346 ) ) ;
#164 = PRODUCT_DEFINITION_CONTEXT ( 'detailed design', #165, 'design' ) ;
#165 = APPLICATION_CONTEXT ( 'automotive_design' ) ;
#166 = PLANE ( 'NONE',  #143 ) ;
#167 = AXIS2_PLACEMENT_3D ( 'NONE', #117, #122, #1 ) ;
#168 = SURFACE_STYLE_FILL_AREA ( #44 ) ;
#169 = DIRECTION ( 'NONE',  ( -1.000000000000000000, -0.0000000000000000000, -0.0000000000000000000 ) ) ;
#170 = AXIS2_PLACEMENT_3D ( 'NONE', #4, #123, #51 ) ;
#171 = VERTEX_POINT ( 'NONE', #184 ) ;
#172 = SURFACE_STYLE_USAGE ( .BOTH. , #17 ) ;
#173 =( LENGTH_UNIT ( ) NAMED_UNIT ( * ) SI_UNIT ( .MILLI., .METRE. ) );
#174 = CARTESIAN_POINT ( 'NONE',  ( 38.00000000000000711, 0.0000000000000000000, -3.150000000000006128 ) ) ;
#175 = SURFACE_STYLE_FILL_AREA ( #91 ) ;
#176 = SURFACE_STYLE_USAGE ( .BOTH. , #193 ) ;
#177 = CARTESIAN_POINT ( 'NONE',  ( 0.0000000000000000000, 0.0000000000000000000, 0.0000000000000000000 ) ) ;
#178 =( GEOMETRIC_REPRESENTATION_CONTEXT ( 3 ) GLOBAL_UNCERTAINTY_ASSIGNED_CONTEXT ( ( #80 ) ) GLOBAL_UNIT_ASSIGNED_CONTEXT ( ( #157, #196, #186 ) ) REPRESENTATION_CONTEXT ( 'NONE', 'WORKASPACE' ) );
#179 =( NAMED_UNIT ( * ) PLANE_ANGLE_UNIT ( ) SI_UNIT ( $, .RADIAN. ) );
#180 = CIRCLE ( 'NONE', #130, 3.150000000000012346 ) ;
#181 = ADVANCED_FACE ( 'NONE', ( #95, #189 ), #84, .T. ) ;
#182 = CARTESIAN_POINT ( 'NONE',  ( 38.00000000000000711, 0.0000000000000000000, 0.0000000000000000000 ) ) ;
#183 =( GEOMETRIC_REPRESENTATION_CONTEXT ( 3 ) GLOBAL_UNCERTAINTY_ASSIGNED_CONTEXT ( ( #48 ) ) GLOBAL_UNIT_ASSIGNED_CONTEXT ( ( #127, #10, #202 ) ) REPRESENTATION_CONTEXT ( 'NONE', 'WORKASPACE' ) );
#184 = CARTESIAN_POINT ( 'NONE',  ( -1.928818708657081344E-16, 0.0000000000000000000, -2.520000000000022666 ) ) ;
#185 = CIRCLE ( 'NONE', #167, 3.150000000000006128 ) ;
#186 =( NAMED_UNIT ( * ) SI_UNIT ( $, .STERADIAN. ) SOLID_ANGLE_UNIT ( ) );
#187 = STYLED_ITEM ( 'NONE', ( #128 ), #65 ) ;
#188 = DIRECTION ( 'NONE',  ( 1.000000000000000000, 0.0000000000000000000, 0.0000000000000000000 ) ) ;
#189 = FACE_BOUND ( 'NONE', #191, .T. ) ;
#190 = COLOUR_RGB ( '',0.7921568627450980005, 0.8196078431372548767, 0.9333333333333333481 ) ;
#191 = EDGE_LOOP ( 'NONE', ( #201 ) ) ;
#192 = DIRECTION ( 'NONE',  ( 1.000000000000000000, 0.0000000000000000000, 0.0000000000000000000 ) ) ;
#193 = SURFACE_SIDE_STYLE ('',( #71 ) ) ;
#194 = CARTESIAN_POINT ( 'NONE',  ( -1.928818708657081344E-16, 0.0000000000000000000, 0.0000000000000000000 ) ) ;
#195 = ORIENTED_EDGE ( 'NONE', *, *, #100, .T. ) ;
#196 =( NAMED_UNIT ( * ) PLANE_ANGLE_UNIT ( ) SI_UNIT ( $, .RADIAN. ) );
#197 = EDGE_LOOP ( 'NONE', ( #30 ) ) ;
#198 =( LENGTH_UNIT ( ) NAMED_UNIT ( * ) SI_UNIT ( .MILLI., .METRE. ) );
#199 = CLOSED_SHELL ( 'NONE', ( #90, #28, #181, #160 ) ) ;
#200 = PRESENTATION_LAYER_ASSIGNMENT (  '', '', ( #94 ) ) ;
#201 = ORIENTED_EDGE ( 'NONE', *, *, #100, .F. ) ;
#202 =( NAMED_UNIT ( * ) SI_UNIT ( $, .STERADIAN. ) SOLID_ANGLE_UNIT ( ) );
#203 = AXIS2_PLACEMENT_3D ( 'NONE', #25, #132, #107 ) ;
#204 = PRESENTATION_STYLE_ASSIGNMENT (( #210 ) ) ;
#205 =( NAMED_UNIT ( * ) SI_UNIT ( $, .STERADIAN. ) SOLID_ANGLE_UNIT ( ) );
#206 = EDGE_LOOP ( 'NONE', ( #19 ) ) ;
#207 = DIRECTION ( 'NONE',  ( 0.0000000000000000000, 0.0000000000000000000, -1.000000000000000000 ) ) ;
#208 = MECHANICAL_DESIGN_GEOMETRIC_PRESENTATION_REPRESENTATION (  '', ( #61 ), #20 ) ;
#209 = COLOUR_RGB ( '',0.7921568627450980005, 0.8196078431372548767, 0.9333333333333333481 ) ;
#210 = SURFACE_STYLE_USAGE ( .BOTH. , #45 ) ;
#211 = EDGE_CURVE ( 'NONE', #124, #124, #180, .T. ) ;
#212 = VERTEX_POINT ( 'NONE', #58 ) ;
#213 = EDGE_LOOP ( 'NONE', ( #134 ) ) ;
ENDSEC;
END-ISO-10303-21;
