ISO-10303-21;
HEADER;
FILE_DESCRIPTION (( 'STEP AP214' ),
    '1' );
FILE_NAME ('03-1671.STEP',
    '2021-10-01T05:34:27',
    ( 'USER' ),
    ( '' ),
    'SwSTEP 2.0',
    'SolidWorks 2018',
    '' );
FILE_SCHEMA (( 'AUTOMOTIVE_DESIGN' ));
ENDSEC;

DATA;
#1 = AXIS2_PLACEMENT_3D ( 'NONE', #181, #106, #210 ) ;
#2 = SURFACE_STYLE_FILL_AREA ( #83 ) ;
#3 = CIRCLE ( 'NONE', #1, 3.250000000000005773 ) ;
#4 = PRESENTATION_STYLE_ASSIGNMENT (( #88 ) ) ;
#5 = AXIS2_PLACEMENT_3D ( 'NONE', #79, #108, #127 ) ;
#6 = CONICAL_SURFACE ( 'NONE', #212, 2.600000000000004974, 0.7853981633974509435 ) ;
#7 = PRESENTATION_STYLE_ASSIGNMENT (( #81 ) ) ;
#8 = VERTEX_POINT ( 'NONE', #20 ) ;
#9 = EDGE_LOOP ( 'NONE', ( #77 ) ) ;
#10 = UNCERTAINTY_MEASURE_WITH_UNIT (LENGTH_MEASURE( 1.000000000000000082E-05 ), #185, 'distance_accuracy_value', 'NONE');
#11 = CARTESIAN_POINT ( 'NONE',  ( 38.00000000000000711, 0.0000000000000000000, 0.0000000000000000000 ) ) ;
#12 = SURFACE_STYLE_USAGE ( .BOTH. , #74 ) ;
#13 = ORIENTED_EDGE ( 'NONE', *, *, #82, .F. ) ;
#14 = UNCERTAINTY_MEASURE_WITH_UNIT (LENGTH_MEASURE( 1.000000000000000082E-05 ), #94, 'distance_accuracy_value', 'NONE');
#15 = MECHANICAL_DESIGN_GEOMETRIC_PRESENTATION_REPRESENTATION (  '', ( #165 ), #114 ) ;
#16 = VERTEX_POINT ( 'NONE', #193 ) ;
#17 = CARTESIAN_POINT ( 'NONE',  ( 0.6499999999999971356, 0.0000000000000000000, -3.250000000000005773 ) ) ;
#18 = ADVANCED_FACE ( 'NONE', ( #149 ), #49, .F. ) ;
#19 = DIRECTION ( 'NONE',  ( -1.000000000000000000, -0.0000000000000000000, -0.0000000000000000000 ) ) ;
#20 = CARTESIAN_POINT ( 'NONE',  ( 38.00000000000000711, 0.0000000000000000000, -3.250000000000005773 ) ) ;
#21 = EDGE_LOOP ( 'NONE', ( #189 ) ) ;
#22 = FACE_OUTER_BOUND ( 'NONE', #97, .T. ) ;
#23 = COLOUR_RGB ( '',0.7921568627450980005, 0.8196078431372548767, 0.9333333333333333481 ) ;
#24 = MANIFOLD_SOLID_BREP ( 'ºÐÇÒ2[2]', #203 ) ;
#25 = FILL_AREA_STYLE_COLOUR ( '', #166 ) ;
#26 = MECHANICAL_DESIGN_GEOMETRIC_PRESENTATION_REPRESENTATION (  '', ( #169 ), #39 ) ;
#27 = CONICAL_SURFACE ( 'NONE', #5, 2414.213562373064178, 1.178097245096167978 ) ;
#28 = SURFACE_STYLE_FILL_AREA ( #161 ) ;
#29 = AXIS2_PLACEMENT_3D ( 'NONE', #125, #103, #128 ) ;
#30 = PRODUCT_DEFINITION_CONTEXT ( 'detailed design', #141, 'design' ) ;
#31 = CIRCLE ( 'NONE', #70, 3.250000000000011990 ) ;
#32 = DIRECTION ( 'NONE',  ( 0.0000000000000000000, 0.0000000000000000000, -1.000000000000000000 ) ) ;
#33 = UNCERTAINTY_MEASURE_WITH_UNIT (LENGTH_MEASURE( 1.000000000000000082E-05 ), #146, 'distance_accuracy_value', 'NONE');
#34 = PLANE ( 'NONE',  #29 ) ;
#35 =( GEOMETRIC_REPRESENTATION_CONTEXT ( 3 ) GLOBAL_UNCERTAINTY_ASSIGNED_CONTEXT ( ( #64 ) ) GLOBAL_UNIT_ASSIGNED_CONTEXT ( ( #78, #168, #105 ) ) REPRESENTATION_CONTEXT ( 'NONE', 'WORKASPACE' ) );
#36 = DIRECTION ( 'NONE',  ( -1.000000000000000000, -0.0000000000000000000, -0.0000000000000000000 ) ) ;
#37 = ADVANCED_FACE ( 'NONE', ( #163, #156 ), #6, .T. ) ;
#38 = PLANE ( 'NONE',  #144 ) ;
#39 =( GEOMETRIC_REPRESENTATION_CONTEXT ( 3 ) GLOBAL_UNCERTAINTY_ASSIGNED_CONTEXT ( ( #33 ) ) GLOBAL_UNIT_ASSIGNED_CONTEXT ( ( #146, #192, #194 ) ) REPRESENTATION_CONTEXT ( 'NONE', 'WORKASPACE' ) );
#40 = PRESENTATION_STYLE_ASSIGNMENT (( #196 ) ) ;
#41 = SHAPE_DEFINITION_REPRESENTATION ( #129, #60 ) ;
#42 = EDGE_LOOP ( 'NONE', ( #110 ) ) ;
#43 = VERTEX_POINT ( 'NONE', #17 ) ;
#44 = FACE_OUTER_BOUND ( 'NONE', #164, .T. ) ;
#45 =( NAMED_UNIT ( * ) PLANE_ANGLE_UNIT ( ) SI_UNIT ( $, .RADIAN. ) );
#46 = CARTESIAN_POINT ( 'NONE',  ( 0.0000000000000000000, 0.0000000000000000000, 0.0000000000000000000 ) ) ;
#47 = DIRECTION ( 'NONE',  ( 1.000000000000000000, 0.0000000000000000000, 0.0000000000000000000 ) ) ;
#48 = VERTEX_POINT ( 'NONE', #159 ) ;
#49 = PLANE ( 'NONE',  #148 ) ;
#50 = PRODUCT_DEFINITION ( 'UNKNOWN', '', #72, #30 ) ;
#51 =( NAMED_UNIT ( * ) SI_UNIT ( $, .STERADIAN. ) SOLID_ANGLE_UNIT ( ) );
#52 =( NAMED_UNIT ( * ) PLANE_ANGLE_UNIT ( ) SI_UNIT ( $, .RADIAN. ) );
#53 = PRODUCT_RELATED_PRODUCT_CATEGORY ( 'part', '', ( #112 ) ) ;
#54 = CARTESIAN_POINT ( 'NONE',  ( 38.00000000000000711, 0.0000000000000000000, 0.0000000000000000000 ) ) ;
#55 = DIRECTION ( 'NONE',  ( 0.0000000000000000000, 0.0000000000000000000, 1.000000000000000000 ) ) ;
#56 = DIRECTION ( 'NONE',  ( 1.000000000000000000, 0.0000000000000000000, 0.0000000000000000000 ) ) ;
#57 = ADVANCED_FACE ( 'NONE', ( #75, #71 ), #99, .T. ) ;
#58 = DIRECTION ( 'NONE',  ( 0.0000000000000000000, 0.0000000000000000000, 1.000000000000000000 ) ) ;
#59 = EDGE_LOOP ( 'NONE', ( #167 ) ) ;
#60 = ADVANCED_BREP_SHAPE_REPRESENTATION ( '03-1671', ( #130, #24, #101 ), #208 ) ;
#61 = FILL_AREA_STYLE ('',( #205 ) ) ;
#62 =( NAMED_UNIT ( * ) SI_UNIT ( $, .STERADIAN. ) SOLID_ANGLE_UNIT ( ) );
#63 = SURFACE_SIDE_STYLE ('',( #28 ) ) ;
#64 = UNCERTAINTY_MEASURE_WITH_UNIT (LENGTH_MEASURE( 1.000000000000000082E-05 ), #78, 'distance_accuracy_value', 'NONE');
#65 = MECHANICAL_DESIGN_GEOMETRIC_PRESENTATION_REPRESENTATION (  '', ( #116 ), #35 ) ;
#66 = UNCERTAINTY_MEASURE_WITH_UNIT (LENGTH_MEASURE( 1.000000000000000082E-05 ), #122, 'distance_accuracy_value', 'NONE');
#67 = SURFACE_STYLE_FILL_AREA ( #119 ) ;
#68 = CIRCLE ( 'NONE', #89, 3.250000000000005773 ) ;
#69 = PRESENTATION_STYLE_ASSIGNMENT (( #174 ) ) ;
#70 = AXIS2_PLACEMENT_3D ( 'NONE', #123, #36, #155 ) ;
#71 = FACE_OUTER_BOUND ( 'NONE', #160, .T. ) ;
#72 = PRODUCT_DEFINITION_FORMATION_WITH_SPECIFIED_SOURCE ( 'ANY', '', #112, .NOT_KNOWN. ) ;
#73 = CIRCLE ( 'NONE', #132, 2.600000000000004974 ) ;
#74 = SURFACE_SIDE_STYLE ('',( #195 ) ) ;
#75 = FACE_OUTER_BOUND ( 'NONE', #59, .T. ) ;
#76 = DIRECTION ( 'NONE',  ( 0.0000000000000000000, 0.0000000000000000000, -1.000000000000000000 ) ) ;
#77 = ORIENTED_EDGE ( 'NONE', *, *, #111, .F. ) ;
#78 =( LENGTH_UNIT ( ) NAMED_UNIT ( * ) SI_UNIT ( .MILLI., .METRE. ) );
#79 = CARTESIAN_POINT ( 'NONE',  ( -899.0000000000000000, 0.0000000000000000000, 0.0000000000000000000 ) ) ;
#80 = FACE_OUTER_BOUND ( 'NONE', #190, .T. ) ;
#81 = SURFACE_STYLE_USAGE ( .BOTH. , #173 ) ;
#82 = EDGE_CURVE ( 'NONE', #8, #8, #68, .T. ) ;
#83 = FILL_AREA_STYLE ('',( #209 ) ) ;
#84 = COLOUR_RGB ( '',1.000000000000000000, 1.000000000000000000, 0.0000000000000000000 ) ;
#85 = CARTESIAN_POINT ( 'NONE',  ( 0.0000000000000000000, 0.0000000000000000000, 0.0000000000000000000 ) ) ;
#86 = CARTESIAN_POINT ( 'NONE',  ( -1.990051048614448623E-16, 3.250000000000000000, 0.0000000000000000000 ) ) ;
#87 = DIRECTION ( 'NONE',  ( 1.000000000000000000, 0.0000000000000000000, 0.0000000000000000000 ) ) ;
#88 = SURFACE_STYLE_USAGE ( .BOTH. , #95 ) ;
#89 = AXIS2_PLACEMENT_3D ( 'NONE', #11, #47, #150 ) ;
#90 = DIRECTION ( 'NONE',  ( -1.000000000000000000, -0.0000000000000000000, -0.0000000000000000000 ) ) ;
#91 = EDGE_CURVE ( 'NONE', #48, #48, #31, .T. ) ;
#92 = CIRCLE ( 'NONE', #202, 3.250000000000005773 ) ;
#93 = DIRECTION ( 'NONE',  ( 0.0000000000000000000, 0.0000000000000000000, -1.000000000000000000 ) ) ;
#94 =( LENGTH_UNIT ( ) NAMED_UNIT ( * ) SI_UNIT ( .MILLI., .METRE. ) );
#95 = SURFACE_SIDE_STYLE ('',( #2 ) ) ;
#96 =( NAMED_UNIT ( * ) PLANE_ANGLE_UNIT ( ) SI_UNIT ( $, .RADIAN. ) );
#97 = EDGE_LOOP ( 'NONE', ( #138 ) ) ;
#98 = PRESENTATION_LAYER_ASSIGNMENT (  '', '', ( #200 ) ) ;
#99 = CYLINDRICAL_SURFACE ( 'NONE', #197, 3.250000000000005773 ) ;
#100 = EDGE_CURVE ( 'NONE', #43, #43, #3, .T. ) ;
#101 = AXIS2_PLACEMENT_3D ( 'NONE', #46, #55, #102 ) ;
#102 = DIRECTION ( 'NONE',  ( 1.000000000000000000, 0.0000000000000000000, 0.0000000000000000000 ) ) ;
#103 = DIRECTION ( 'NONE',  ( 1.000000000000000000, 0.0000000000000000000, 0.0000000000000000000 ) ) ;
#104 = ORIENTED_EDGE ( 'NONE', *, *, #82, .T. ) ;
#105 =( NAMED_UNIT ( * ) SI_UNIT ( $, .STERADIAN. ) SOLID_ANGLE_UNIT ( ) );
#106 = DIRECTION ( 'NONE',  ( 1.000000000000000000, 0.0000000000000000000, 0.0000000000000000000 ) ) ;
#107 = ADVANCED_FACE ( 'NONE', ( #22, #113 ), #118, .T. ) ;
#108 = DIRECTION ( 'NONE',  ( -1.000000000000000000, -0.0000000000000000000, -0.0000000000000000000 ) ) ;
#109 =( NAMED_UNIT ( * ) SI_UNIT ( $, .STERADIAN. ) SOLID_ANGLE_UNIT ( ) );
#110 = ORIENTED_EDGE ( 'NONE', *, *, #91, .F. ) ;
#111 = EDGE_CURVE ( 'NONE', #16, #16, #92, .T. ) ;
#112 = PRODUCT ( '03-1671', '03-1671', '', ( #180 ) ) ;
#113 = FACE_OUTER_BOUND ( 'NONE', #157, .T. ) ;
#114 =( GEOMETRIC_REPRESENTATION_CONTEXT ( 3 ) GLOBAL_UNCERTAINTY_ASSIGNED_CONTEXT ( ( #10 ) ) GLOBAL_UNIT_ASSIGNED_CONTEXT ( ( #185, #96, #51 ) ) REPRESENTATION_CONTEXT ( 'NONE', 'WORKASPACE' ) );
#115 = COLOUR_RGB ( '',1.000000000000000000, 1.000000000000000000, 0.0000000000000000000 ) ;
#116 = STYLED_ITEM ( 'NONE', ( #40 ), #130 ) ;
#117 = MECHANICAL_DESIGN_GEOMETRIC_PRESENTATION_REPRESENTATION (  '', ( #200 ), #175 ) ;
#118 = CYLINDRICAL_SURFACE ( 'NONE', #135, 3.250000000000005773 ) ;
#119 = FILL_AREA_STYLE ('',( #25 ) ) ;
#120 = UNCERTAINTY_MEASURE_WITH_UNIT (LENGTH_MEASURE( 1.000000000000000082E-05 ), #206, 'distance_accuracy_value', 'NONE');
#121 = DIRECTION ( 'NONE',  ( 0.0000000000000000000, 0.0000000000000000000, 1.000000000000000000 ) ) ;
#122 =( LENGTH_UNIT ( ) NAMED_UNIT ( * ) SI_UNIT ( .MILLI., .METRE. ) );
#123 = CARTESIAN_POINT ( 'NONE',  ( 99.65380592228741818, 0.0000000000000000000, 0.0000000000000000000 ) ) ;
#124 = ADVANCED_FACE ( 'NONE', ( #80 ), #34, .T. ) ;
#125 = CARTESIAN_POINT ( 'NONE',  ( 38.00000000000000711, 0.0000000000000000000, 0.0000000000000000000 ) ) ;
#126 = PRESENTATION_LAYER_ASSIGNMENT (  '', '', ( #116 ) ) ;
#127 = DIRECTION ( 'NONE',  ( 0.0000000000000000000, 0.0000000000000000000, 1.000000000000000000 ) ) ;
#128 = DIRECTION ( 'NONE',  ( 0.0000000000000000000, 0.0000000000000000000, -1.000000000000000000 ) ) ;
#129 = PRODUCT_DEFINITION_SHAPE ( 'NONE', 'NONE',  #50 ) ;
#130 = MANIFOLD_SOLID_BREP ( 'ºÐÇÒ2[1]', #143 ) ;
#131 = CARTESIAN_POINT ( 'NONE',  ( -1.990051048614448623E-16, 0.0000000000000000000, -2.600000000000004974 ) ) ;
#132 = AXIS2_PLACEMENT_3D ( 'NONE', #211, #19, #140 ) ;
#133 = FACE_OUTER_BOUND ( 'NONE', #42, .T. ) ;
#134 = DIRECTION ( 'NONE',  ( -1.000000000000000000, -0.0000000000000000000, -0.0000000000000000000 ) ) ;
#135 = AXIS2_PLACEMENT_3D ( 'NONE', #85, #134, #58 ) ;
#136 = CARTESIAN_POINT ( 'NONE',  ( 0.0000000000000000000, 0.0000000000000000000, 0.0000000000000000000 ) ) ;
#137 = DIRECTION ( 'NONE',  ( 1.000000000000000000, 0.0000000000000000000, 0.0000000000000000000 ) ) ;
#138 = ORIENTED_EDGE ( 'NONE', *, *, #111, .T. ) ;
#139 = ORIENTED_EDGE ( 'NONE', *, *, #179, .T. ) ;
#140 = DIRECTION ( 'NONE',  ( 0.0000000000000000000, 0.0000000000000000000, -1.000000000000000000 ) ) ;
#141 = APPLICATION_CONTEXT ( 'automotive_design' ) ;
#142 = FILL_AREA_STYLE_COLOUR ( '', #23 ) ;
#143 = CLOSED_SHELL ( 'NONE', ( #57, #172, #37, #124 ) ) ;
#144 = AXIS2_PLACEMENT_3D ( 'NONE', #86, #56, #93 ) ;
#145 = ORIENTED_EDGE ( 'NONE', *, *, #91, .T. ) ;
#146 =( LENGTH_UNIT ( ) NAMED_UNIT ( * ) SI_UNIT ( .MILLI., .METRE. ) );
#147 = VERTEX_POINT ( 'NONE', #131 ) ;
#148 = AXIS2_PLACEMENT_3D ( 'NONE', #54, #137, #76 ) ;
#149 = FACE_OUTER_BOUND ( 'NONE', #9, .T. ) ;
#150 = DIRECTION ( 'NONE',  ( 0.0000000000000000000, 0.0000000000000000000, -1.000000000000000000 ) ) ;
#151 = FILL_AREA_STYLE ('',( #170 ) ) ;
#152 = PRESENTATION_STYLE_ASSIGNMENT (( #12 ) ) ;
#153 =( NAMED_UNIT ( * ) SI_UNIT ( $, .STERADIAN. ) SOLID_ANGLE_UNIT ( ) );
#154 = PRESENTATION_LAYER_ASSIGNMENT (  '', '', ( #165 ) ) ;
#155 = DIRECTION ( 'NONE',  ( 0.0000000000000000000, 0.0000000000000000000, 1.000000000000000000 ) ) ;
#156 = FACE_BOUND ( 'NONE', #186, .T. ) ;
#157 = EDGE_LOOP ( 'NONE', ( #145 ) ) ;
#158 = SURFACE_STYLE_FILL_AREA ( #61 ) ;
#159 = CARTESIAN_POINT ( 'NONE',  ( 99.65380592228741818, 0.0000000000000000000, 3.250000000000011990 ) ) ;
#160 = EDGE_LOOP ( 'NONE', ( #13 ) ) ;
#161 = FILL_AREA_STYLE ('',( #142 ) ) ;
#162 =( GEOMETRIC_REPRESENTATION_CONTEXT ( 3 ) GLOBAL_UNCERTAINTY_ASSIGNED_CONTEXT ( ( #14 ) ) GLOBAL_UNIT_ASSIGNED_CONTEXT ( ( #94, #198, #109 ) ) REPRESENTATION_CONTEXT ( 'NONE', 'WORKASPACE' ) );
#163 = FACE_OUTER_BOUND ( 'NONE', #21, .T. ) ;
#164 = EDGE_LOOP ( 'NONE', ( #139 ) ) ;
#165 = STYLED_ITEM ( 'NONE', ( #69 ), #60 ) ;
#166 = COLOUR_RGB ( '',0.7921568627450980005, 0.8196078431372548767, 0.9333333333333333481 ) ;
#167 = ORIENTED_EDGE ( 'NONE', *, *, #100, .T. ) ;
#168 =( NAMED_UNIT ( * ) PLANE_ANGLE_UNIT ( ) SI_UNIT ( $, .RADIAN. ) );
#169 = STYLED_ITEM ( 'NONE', ( #4 ), #107 ) ;
#170 = FILL_AREA_STYLE_COLOUR ( '', #177 ) ;
#171 = MECHANICAL_DESIGN_GEOMETRIC_PRESENTATION_REPRESENTATION (  '', ( #187 ), #162 ) ;
#172 = ADVANCED_FACE ( 'NONE', ( #44 ), #38, .F. ) ;
#173 = SURFACE_SIDE_STYLE ('',( #158 ) ) ;
#174 = SURFACE_STYLE_USAGE ( .BOTH. , #63 ) ;
#175 =( GEOMETRIC_REPRESENTATION_CONTEXT ( 3 ) GLOBAL_UNCERTAINTY_ASSIGNED_CONTEXT ( ( #66 ) ) GLOBAL_UNIT_ASSIGNED_CONTEXT ( ( #122, #52, #153 ) ) REPRESENTATION_CONTEXT ( 'NONE', 'WORKASPACE' ) );
#176 = PRESENTATION_LAYER_ASSIGNMENT (  '', '', ( #187 ) ) ;
#177 = COLOUR_RGB ( '',0.7921568627450980005, 0.8196078431372548767, 0.9333333333333333481 ) ;
#178 = DIRECTION ( 'NONE',  ( 1.000000000000000000, 0.0000000000000000000, 0.0000000000000000000 ) ) ;
#179 = EDGE_CURVE ( 'NONE', #147, #147, #73, .T. ) ;
#180 = PRODUCT_CONTEXT ( 'NONE', #213, 'mechanical' ) ;
#181 = CARTESIAN_POINT ( 'NONE',  ( 0.6499999999999971356, 0.0000000000000000000, 0.0000000000000000000 ) ) ;
#182 = ADVANCED_FACE ( 'NONE', ( #133 ), #27, .T. ) ;
#183 = APPLICATION_PROTOCOL_DEFINITION ( 'draft international standard', 'automotive_design', 1998, #141 ) ;
#184 = APPLICATION_PROTOCOL_DEFINITION ( 'draft international standard', 'automotive_design', 1998, #213 ) ;
#185 =( LENGTH_UNIT ( ) NAMED_UNIT ( * ) SI_UNIT ( .MILLI., .METRE. ) );
#186 = EDGE_LOOP ( 'NONE', ( #201 ) ) ;
#187 = STYLED_ITEM ( 'NONE', ( #7 ), #182 ) ;
#188 = CARTESIAN_POINT ( 'NONE',  ( 38.00000000000000711, 0.0000000000000000000, 0.0000000000000000000 ) ) ;
#189 = ORIENTED_EDGE ( 'NONE', *, *, #100, .F. ) ;
#190 = EDGE_LOOP ( 'NONE', ( #104 ) ) ;
#191 = PRESENTATION_LAYER_ASSIGNMENT (  '', '', ( #169 ) ) ;
#192 =( NAMED_UNIT ( * ) PLANE_ANGLE_UNIT ( ) SI_UNIT ( $, .RADIAN. ) );
#193 = CARTESIAN_POINT ( 'NONE',  ( 38.00000000000000711, 0.0000000000000000000, -3.250000000000005773 ) ) ;
#194 =( NAMED_UNIT ( * ) SI_UNIT ( $, .STERADIAN. ) SOLID_ANGLE_UNIT ( ) );
#195 = SURFACE_STYLE_FILL_AREA ( #151 ) ;
#196 = SURFACE_STYLE_USAGE ( .BOTH. , #199 ) ;
#197 = AXIS2_PLACEMENT_3D ( 'NONE', #136, #90, #121 ) ;
#198 =( NAMED_UNIT ( * ) PLANE_ANGLE_UNIT ( ) SI_UNIT ( $, .RADIAN. ) );
#199 = SURFACE_SIDE_STYLE ('',( #67 ) ) ;
#200 = STYLED_ITEM ( 'NONE', ( #152 ), #24 ) ;
#201 = ORIENTED_EDGE ( 'NONE', *, *, #179, .F. ) ;
#202 = AXIS2_PLACEMENT_3D ( 'NONE', #188, #87, #204 ) ;
#203 = CLOSED_SHELL ( 'NONE', ( #18, #107, #182 ) ) ;
#204 = DIRECTION ( 'NONE',  ( 0.0000000000000000000, 0.0000000000000000000, -1.000000000000000000 ) ) ;
#205 = FILL_AREA_STYLE_COLOUR ( '', #84 ) ;
#206 =( LENGTH_UNIT ( ) NAMED_UNIT ( * ) SI_UNIT ( .MILLI., .METRE. ) );
#207 = CARTESIAN_POINT ( 'NONE',  ( -1.990051048614448623E-16, 0.0000000000000000000, 0.0000000000000000000 ) ) ;
#208 =( GEOMETRIC_REPRESENTATION_CONTEXT ( 3 ) GLOBAL_UNCERTAINTY_ASSIGNED_CONTEXT ( ( #120 ) ) GLOBAL_UNIT_ASSIGNED_CONTEXT ( ( #206, #45, #62 ) ) REPRESENTATION_CONTEXT ( 'NONE', 'WORKASPACE' ) );
#209 = FILL_AREA_STYLE_COLOUR ( '', #115 ) ;
#210 = DIRECTION ( 'NONE',  ( 0.0000000000000000000, 0.0000000000000000000, -1.000000000000000000 ) ) ;
#211 = CARTESIAN_POINT ( 'NONE',  ( -1.990051048614448623E-16, 0.0000000000000000000, 0.0000000000000000000 ) ) ;
#212 = AXIS2_PLACEMENT_3D ( 'NONE', #207, #178, #32 ) ;
#213 = APPLICATION_CONTEXT ( 'automotive_design' ) ;
ENDSEC;
END-ISO-10303-21;
