ISO-10303-21;
HEADER;
FILE_DESCRIPTION (( 'STEP AP214' ),
    '1' );
FILE_NAME ('03-1672.STEP',
    '2021-10-01T05:34:45',
    ( 'USER' ),
    ( '' ),
    'SwSTEP 2.0',
    'SolidWorks 2018',
    '' );
FILE_SCHEMA (( 'AUTOMOTIVE_DESIGN' ));
ENDSEC;

DATA;
#1 = PRESENTATION_STYLE_ASSIGNMENT (( #94 ) ) ;
#2 =( NAMED_UNIT ( * ) PLANE_ANGLE_UNIT ( ) SI_UNIT ( $, .RADIAN. ) );
#3 = PRESENTATION_LAYER_ASSIGNMENT (  '', '', ( #45 ) ) ;
#4 = ADVANCED_FACE ( 'NONE', ( #96, #113 ), #85, .T. ) ;
#5 = ORIENTED_EDGE ( 'NONE', *, *, #160, .T. ) ;
#6 =( LENGTH_UNIT ( ) NAMED_UNIT ( * ) SI_UNIT ( .MILLI., .METRE. ) );
#7 = DIRECTION ( 'NONE',  ( -1.000000000000000000, -0.0000000000000000000, -0.0000000000000000000 ) ) ;
#8 = FACE_OUTER_BOUND ( 'NONE', #19, .T. ) ;
#9 = ORIENTED_EDGE ( 'NONE', *, *, #101, .F. ) ;
#10 =( NAMED_UNIT ( * ) PLANE_ANGLE_UNIT ( ) SI_UNIT ( $, .RADIAN. ) );
#11 =( NAMED_UNIT ( * ) SI_UNIT ( $, .STERADIAN. ) SOLID_ANGLE_UNIT ( ) );
#12 = FILL_AREA_STYLE_COLOUR ( '', #157 ) ;
#13 = CARTESIAN_POINT ( 'NONE',  ( -2.020667218593132755E-16, 3.299999999999999822, 0.0000000000000000000 ) ) ;
#14 = EDGE_LOOP ( 'NONE', ( #5 ) ) ;
#15 =( GEOMETRIC_REPRESENTATION_CONTEXT ( 3 ) GLOBAL_UNCERTAINTY_ASSIGNED_CONTEXT ( ( #36 ) ) GLOBAL_UNIT_ASSIGNED_CONTEXT ( ( #25, #10, #11 ) ) REPRESENTATION_CONTEXT ( 'NONE', 'WORKASPACE' ) );
#16 = SURFACE_SIDE_STYLE ('',( #189 ) ) ;
#17 =( NAMED_UNIT ( * ) PLANE_ANGLE_UNIT ( ) SI_UNIT ( $, .RADIAN. ) );
#18 = DIRECTION ( 'NONE',  ( 1.000000000000000000, 0.0000000000000000000, 0.0000000000000000000 ) ) ;
#19 = EDGE_LOOP ( 'NONE', ( #191 ) ) ;
#20 = AXIS2_PLACEMENT_3D ( 'NONE', #52, #171, #135 ) ;
#21 = SURFACE_STYLE_USAGE ( .BOTH. , #16 ) ;
#22 = DIRECTION ( 'NONE',  ( 0.0000000000000000000, 0.0000000000000000000, 1.000000000000000000 ) ) ;
#23 = AXIS2_PLACEMENT_3D ( 'NONE', #41, #44, #47 ) ;
#24 = FILL_AREA_STYLE ('',( #203 ) ) ;
#25 =( LENGTH_UNIT ( ) NAMED_UNIT ( * ) SI_UNIT ( .MILLI., .METRE. ) );
#26 = ORIENTED_EDGE ( 'NONE', *, *, #166, .F. ) ;
#27 = DIRECTION ( 'NONE',  ( -1.000000000000000000, -0.0000000000000000000, -0.0000000000000000000 ) ) ;
#28 = DIRECTION ( 'NONE',  ( 1.000000000000000000, 0.0000000000000000000, 0.0000000000000000000 ) ) ;
#29 = AXIS2_PLACEMENT_3D ( 'NONE', #65, #105, #77 ) ;
#30 = DIRECTION ( 'NONE',  ( 0.0000000000000000000, 0.0000000000000000000, 1.000000000000000000 ) ) ;
#31 = PRESENTATION_STYLE_ASSIGNMENT (( #86 ) ) ;
#32 =( GEOMETRIC_REPRESENTATION_CONTEXT ( 3 ) GLOBAL_UNCERTAINTY_ASSIGNED_CONTEXT ( ( #159 ) ) GLOBAL_UNIT_ASSIGNED_CONTEXT ( ( #183, #149, #46 ) ) REPRESENTATION_CONTEXT ( 'NONE', 'WORKASPACE' ) );
#33 = AXIS2_PLACEMENT_3D ( 'NONE', #13, #28, #131 ) ;
#34 = ADVANCED_BREP_SHAPE_REPRESENTATION ( '03-1672', ( #90, #125, #95 ), #169 ) ;
#35 =( NAMED_UNIT ( * ) PLANE_ANGLE_UNIT ( ) SI_UNIT ( $, .RADIAN. ) );
#36 = UNCERTAINTY_MEASURE_WITH_UNIT (LENGTH_MEASURE( 1.000000000000000082E-05 ), #25, 'distance_accuracy_value', 'NONE');
#37 = DIRECTION ( 'NONE',  ( 0.0000000000000000000, 0.0000000000000000000, -1.000000000000000000 ) ) ;
#38 = PLANE ( 'NONE',  #33 ) ;
#39 = MECHANICAL_DESIGN_GEOMETRIC_PRESENTATION_REPRESENTATION (  '', ( #66 ), #15 ) ;
#40 = MECHANICAL_DESIGN_GEOMETRIC_PRESENTATION_REPRESENTATION (  '', ( #173 ), #32 ) ;
#41 = CARTESIAN_POINT ( 'NONE',  ( 38.00000000000000711, 0.0000000000000000000, 0.0000000000000000000 ) ) ;
#42 = VERTEX_POINT ( 'NONE', #100 ) ;
#43 = CLOSED_SHELL ( 'NONE', ( #103, #62, #145 ) ) ;
#44 = DIRECTION ( 'NONE',  ( 1.000000000000000000, 0.0000000000000000000, 0.0000000000000000000 ) ) ;
#45 = STYLED_ITEM ( 'NONE', ( #164 ), #125 ) ;
#46 =( NAMED_UNIT ( * ) SI_UNIT ( $, .STERADIAN. ) SOLID_ANGLE_UNIT ( ) );
#47 = DIRECTION ( 'NONE',  ( 0.0000000000000000000, 0.0000000000000000000, -1.000000000000000000 ) ) ;
#48 = EDGE_LOOP ( 'NONE', ( #120 ) ) ;
#49 = DIRECTION ( 'NONE',  ( -1.000000000000000000, -0.0000000000000000000, -0.0000000000000000000 ) ) ;
#50 = PRODUCT_RELATED_PRODUCT_CATEGORY ( 'part', '', ( #133 ) ) ;
#51 = FILL_AREA_STYLE_COLOUR ( '', #123 ) ;
#52 = CARTESIAN_POINT ( 'NONE',  ( -899.0000000000000000, 0.0000000000000000000, 0.0000000000000000000 ) ) ;
#53 = COLOUR_RGB ( '',0.7921568627450980005, 0.8196078431372548767, 0.9333333333333333481 ) ;
#54 = EDGE_CURVE ( 'NONE', #172, #172, #73, .T. ) ;
#55 = SURFACE_STYLE_USAGE ( .BOTH. , #168 ) ;
#56 = CARTESIAN_POINT ( 'NONE',  ( 38.00000000000000711, 0.0000000000000000000, 0.0000000000000000000 ) ) ;
#57 = CARTESIAN_POINT ( 'NONE',  ( 0.0000000000000000000, 0.0000000000000000000, 0.0000000000000000000 ) ) ;
#58 = DIRECTION ( 'NONE',  ( 0.0000000000000000000, 0.0000000000000000000, 1.000000000000000000 ) ) ;
#59 = PRESENTATION_LAYER_ASSIGNMENT (  '', '', ( #173 ) ) ;
#60 = CIRCLE ( 'NONE', #207, 3.300000000000012257 ) ;
#61 = EDGE_LOOP ( 'NONE', ( #9 ) ) ;
#62 = ADVANCED_FACE ( 'NONE', ( #119, #98 ), #109, .T. ) ;
#63 = FACE_OUTER_BOUND ( 'NONE', #111, .T. ) ;
#64 = PRODUCT_DEFINITION_FORMATION_WITH_SPECIFIED_SOURCE ( 'ANY', '', #133, .NOT_KNOWN. ) ;
#65 = CARTESIAN_POINT ( 'NONE',  ( -2.020667218593132755E-16, 0.0000000000000000000, 0.0000000000000000000 ) ) ;
#66 = STYLED_ITEM ( 'NONE', ( #193 ), #62 ) ;
#67 = DIRECTION ( 'NONE',  ( 1.000000000000000000, 0.0000000000000000000, 0.0000000000000000000 ) ) ;
#68 = DIRECTION ( 'NONE',  ( 0.0000000000000000000, 0.0000000000000000000, -1.000000000000000000 ) ) ;
#69 = PRODUCT_DEFINITION_SHAPE ( 'NONE', 'NONE',  #76 ) ;
#70 = EDGE_LOOP ( 'NONE', ( #155 ) ) ;
#71 =( GEOMETRIC_REPRESENTATION_CONTEXT ( 3 ) GLOBAL_UNCERTAINTY_ASSIGNED_CONTEXT ( ( #146 ) ) GLOBAL_UNIT_ASSIGNED_CONTEXT ( ( #6, #2, #206 ) ) REPRESENTATION_CONTEXT ( 'NONE', 'WORKASPACE' ) );
#72 = FILL_AREA_STYLE_COLOUR ( '', #210 ) ;
#73 = CIRCLE ( 'NONE', #29, 2.640000000000017000 ) ;
#74 = CARTESIAN_POINT ( 'NONE',  ( 38.00000000000000711, 0.0000000000000000000, -3.300000000000006040 ) ) ;
#75 = FILL_AREA_STYLE ('',( #178 ) ) ;
#76 = PRODUCT_DEFINITION ( 'UNKNOWN', '', #64, #179 ) ;
#77 = DIRECTION ( 'NONE',  ( 0.0000000000000000000, 0.0000000000000000000, -1.000000000000000000 ) ) ;
#78 = CARTESIAN_POINT ( 'NONE',  ( 0.6599999999999850431, 0.0000000000000000000, -3.300000000000006040 ) ) ;
#79 = EDGE_LOOP ( 'NONE', ( #151 ) ) ;
#80 =( LENGTH_UNIT ( ) NAMED_UNIT ( * ) SI_UNIT ( .MILLI., .METRE. ) );
#81 =( NAMED_UNIT ( * ) PLANE_ANGLE_UNIT ( ) SI_UNIT ( $, .RADIAN. ) );
#82 = ADVANCED_FACE ( 'NONE', ( #186 ), #38, .F. ) ;
#83 = SURFACE_SIDE_STYLE ('',( #161 ) ) ;
#84 = PRESENTATION_STYLE_ASSIGNMENT (( #55 ) ) ;
#85 = CYLINDRICAL_SURFACE ( 'NONE', #192, 3.300000000000006040 ) ;
#86 = SURFACE_STYLE_USAGE ( .BOTH. , #83 ) ;
#87 = DIRECTION ( 'NONE',  ( 0.0000000000000000000, 0.0000000000000000000, -1.000000000000000000 ) ) ;
#88 = FACE_OUTER_BOUND ( 'NONE', #144, .T. ) ;
#89 =( NAMED_UNIT ( * ) SI_UNIT ( $, .STERADIAN. ) SOLID_ANGLE_UNIT ( ) );
#90 = MANIFOLD_SOLID_BREP ( 'ºÐÇÒ2[1]', #188 ) ;
#91 = MECHANICAL_DESIGN_GEOMETRIC_PRESENTATION_REPRESENTATION (  '', ( #45 ), #71 ) ;
#92 = CARTESIAN_POINT ( 'NONE',  ( 0.0000000000000000000, 0.0000000000000000000, 0.0000000000000000000 ) ) ;
#93 = SURFACE_SIDE_STYLE ('',( #167 ) ) ;
#94 = SURFACE_STYLE_USAGE ( .BOTH. , #93 ) ;
#95 = AXIS2_PLACEMENT_3D ( 'NONE', #57, #129, #211 ) ;
#96 = FACE_OUTER_BOUND ( 'NONE', #196, .T. ) ;
#97 = APPLICATION_PROTOCOL_DEFINITION ( 'draft international standard', 'automotive_design', 1998, #194 ) ;
#98 = FACE_OUTER_BOUND ( 'NONE', #14, .T. ) ;
#99 = APPLICATION_CONTEXT ( 'automotive_design' ) ;
#100 = CARTESIAN_POINT ( 'NONE',  ( 38.00000000000000711, 0.0000000000000000000, -3.300000000000006040 ) ) ;
#101 = EDGE_CURVE ( 'NONE', #213, #213, #177, .T. ) ;
#102 = CONICAL_SURFACE ( 'NONE', #175, 2.640000000000017000, 0.7853981633974512766 ) ;
#103 = ADVANCED_FACE ( 'NONE', ( #63 ), #165, .F. ) ;
#104 = FACE_BOUND ( 'NONE', #79, .T. ) ;
#105 = DIRECTION ( 'NONE',  ( -1.000000000000000000, -0.0000000000000000000, -0.0000000000000000000 ) ) ;
#106 =( GEOMETRIC_REPRESENTATION_CONTEXT ( 3 ) GLOBAL_UNCERTAINTY_ASSIGNED_CONTEXT ( ( #174 ) ) GLOBAL_UNIT_ASSIGNED_CONTEXT ( ( #80, #81, #89 ) ) REPRESENTATION_CONTEXT ( 'NONE', 'WORKASPACE' ) );
#107 = DIRECTION ( 'NONE',  ( 0.0000000000000000000, 0.0000000000000000000, -1.000000000000000000 ) ) ;
#108 = UNCERTAINTY_MEASURE_WITH_UNIT (LENGTH_MEASURE( 1.000000000000000082E-05 ), #117, 'distance_accuracy_value', 'NONE');
#109 = CYLINDRICAL_SURFACE ( 'NONE', #136, 3.300000000000006040 ) ;
#110 = FACE_OUTER_BOUND ( 'NONE', #162, .T. ) ;
#111 = EDGE_LOOP ( 'NONE', ( #124 ) ) ;
#112 = AXIS2_PLACEMENT_3D ( 'NONE', #158, #185, #87 ) ;
#113 = FACE_OUTER_BOUND ( 'NONE', #61, .T. ) ;
#114 = SURFACE_SIDE_STYLE ('',( #139 ) ) ;
#115 = PRODUCT_CONTEXT ( 'NONE', #99, 'mechanical' ) ;
#116 = APPLICATION_PROTOCOL_DEFINITION ( 'draft international standard', 'automotive_design', 1998, #99 ) ;
#117 =( LENGTH_UNIT ( ) NAMED_UNIT ( * ) SI_UNIT ( .MILLI., .METRE. ) );
#118 = ORIENTED_EDGE ( 'NONE', *, *, #166, .T. ) ;
#119 = FACE_OUTER_BOUND ( 'NONE', #70, .T. ) ;
#120 = ORIENTED_EDGE ( 'NONE', *, *, #54, .T. ) ;
#121 = PLANE ( 'NONE',  #198 ) ;
#122 =( GEOMETRIC_REPRESENTATION_CONTEXT ( 3 ) GLOBAL_UNCERTAINTY_ASSIGNED_CONTEXT ( ( #184 ) ) GLOBAL_UNIT_ASSIGNED_CONTEXT ( ( #154, #35, #140 ) ) REPRESENTATION_CONTEXT ( 'NONE', 'WORKASPACE' ) );
#123 = COLOUR_RGB ( '',1.000000000000000000, 1.000000000000000000, 0.0000000000000000000 ) ;
#124 = ORIENTED_EDGE ( 'NONE', *, *, #138, .F. ) ;
#125 = MANIFOLD_SOLID_BREP ( 'ºÐÇÒ2[2]', #43 ) ;
#126 = CARTESIAN_POINT ( 'NONE',  ( 0.0000000000000000000, 0.0000000000000000000, 0.0000000000000000000 ) ) ;
#127 = SURFACE_STYLE_FILL_AREA ( #75 ) ;
#128 = STYLED_ITEM ( 'NONE', ( #1 ), #90 ) ;
#129 = DIRECTION ( 'NONE',  ( 0.0000000000000000000, 0.0000000000000000000, 1.000000000000000000 ) ) ;
#130 =( NAMED_UNIT ( * ) SI_UNIT ( $, .STERADIAN. ) SOLID_ANGLE_UNIT ( ) );
#131 = DIRECTION ( 'NONE',  ( 0.0000000000000000000, 0.0000000000000000000, -1.000000000000000000 ) ) ;
#132 = DIRECTION ( 'NONE',  ( 0.0000000000000000000, 0.0000000000000000000, -1.000000000000000000 ) ) ;
#133 = PRODUCT ( '03-1672', '03-1672', '', ( #115 ) ) ;
#134 = MECHANICAL_DESIGN_GEOMETRIC_PRESENTATION_REPRESENTATION (  '', ( #150 ), #122 ) ;
#135 = DIRECTION ( 'NONE',  ( 0.0000000000000000000, 0.0000000000000000000, 1.000000000000000000 ) ) ;
#136 = AXIS2_PLACEMENT_3D ( 'NONE', #126, #27, #22 ) ;
#137 = SHAPE_DEFINITION_REPRESENTATION ( #69, #34 ) ;
#138 = EDGE_CURVE ( 'NONE', #42, #42, #195, .T. ) ;
#139 = SURFACE_STYLE_FILL_AREA ( #24 ) ;
#140 =( NAMED_UNIT ( * ) SI_UNIT ( $, .STERADIAN. ) SOLID_ANGLE_UNIT ( ) );
#141 = PRESENTATION_LAYER_ASSIGNMENT (  '', '', ( #150 ) ) ;
#142 = CARTESIAN_POINT ( 'NONE',  ( 0.6599999999999850431, 0.0000000000000000000, 0.0000000000000000000 ) ) ;
#143 = CONICAL_SURFACE ( 'NONE', #20, 2414.213562373069180, 1.178097245096168644 ) ;
#144 = EDGE_LOOP ( 'NONE', ( #181 ) ) ;
#145 = ADVANCED_FACE ( 'NONE', ( #88 ), #143, .T. ) ;
#146 = UNCERTAINTY_MEASURE_WITH_UNIT (LENGTH_MEASURE( 1.000000000000000082E-05 ), #6, 'distance_accuracy_value', 'NONE');
#147 = CIRCLE ( 'NONE', #187, 3.300000000000006040 ) ;
#148 = CARTESIAN_POINT ( 'NONE',  ( 38.00000000000000711, 0.0000000000000000000, 0.0000000000000000000 ) ) ;
#149 =( NAMED_UNIT ( * ) PLANE_ANGLE_UNIT ( ) SI_UNIT ( $, .RADIAN. ) );
#150 = STYLED_ITEM ( 'NONE', ( #84 ), #34 ) ;
#151 = ORIENTED_EDGE ( 'NONE', *, *, #54, .F. ) ;
#152 = COLOUR_RGB ( '',0.7921568627450980005, 0.8196078431372548767, 0.9333333333333333481 ) ;
#153 = SURFACE_STYLE_USAGE ( .BOTH. , #114 ) ;
#154 =( LENGTH_UNIT ( ) NAMED_UNIT ( * ) SI_UNIT ( .MILLI., .METRE. ) );
#155 = ORIENTED_EDGE ( 'NONE', *, *, #138, .T. ) ;
#156 = ADVANCED_FACE ( 'NONE', ( #8 ), #121, .T. ) ;
#157 = COLOUR_RGB ( '',0.7921568627450980005, 0.8196078431372548767, 0.9333333333333333481 ) ;
#158 = CARTESIAN_POINT ( 'NONE',  ( 38.00000000000000711, 0.0000000000000000000, 0.0000000000000000000 ) ) ;
#159 = UNCERTAINTY_MEASURE_WITH_UNIT (LENGTH_MEASURE( 1.000000000000000082E-05 ), #183, 'distance_accuracy_value', 'NONE');
#160 = EDGE_CURVE ( 'NONE', #208, #208, #60, .T. ) ;
#161 = SURFACE_STYLE_FILL_AREA ( #200 ) ;
#162 = EDGE_LOOP ( 'NONE', ( #26 ) ) ;
#163 = CARTESIAN_POINT ( 'NONE',  ( -2.020667218593132755E-16, 0.0000000000000000000, 0.0000000000000000000 ) ) ;
#164 = PRESENTATION_STYLE_ASSIGNMENT (( #153 ) ) ;
#165 = PLANE ( 'NONE',  #204 ) ;
#166 = EDGE_CURVE ( 'NONE', #170, #170, #147, .T. ) ;
#167 = SURFACE_STYLE_FILL_AREA ( #205 ) ;
#168 = SURFACE_SIDE_STYLE ('',( #127 ) ) ;
#169 =( GEOMETRIC_REPRESENTATION_CONTEXT ( 3 ) GLOBAL_UNCERTAINTY_ASSIGNED_CONTEXT ( ( #108 ) ) GLOBAL_UNIT_ASSIGNED_CONTEXT ( ( #117, #17, #130 ) ) REPRESENTATION_CONTEXT ( 'NONE', 'WORKASPACE' ) );
#170 = VERTEX_POINT ( 'NONE', #78 ) ;
#171 = DIRECTION ( 'NONE',  ( -1.000000000000000000, -0.0000000000000000000, -0.0000000000000000000 ) ) ;
#172 = VERTEX_POINT ( 'NONE', #197 ) ;
#173 = STYLED_ITEM ( 'NONE', ( #31 ), #145 ) ;
#174 = UNCERTAINTY_MEASURE_WITH_UNIT (LENGTH_MEASURE( 1.000000000000000082E-05 ), #80, 'distance_accuracy_value', 'NONE');
#175 = AXIS2_PLACEMENT_3D ( 'NONE', #163, #212, #37 ) ;
#176 = CARTESIAN_POINT ( 'NONE',  ( 99.63309524416877139, 0.0000000000000000000, 0.0000000000000000000 ) ) ;
#177 = CIRCLE ( 'NONE', #23, 3.300000000000006040 ) ;
#178 = FILL_AREA_STYLE_COLOUR ( '', #53 ) ;
#179 = PRODUCT_DEFINITION_CONTEXT ( 'detailed design', #194, 'design' ) ;
#180 = FILL_AREA_STYLE ('',( #72 ) ) ;
#181 = ORIENTED_EDGE ( 'NONE', *, *, #160, .F. ) ;
#182 = PRESENTATION_LAYER_ASSIGNMENT (  '', '', ( #66 ) ) ;
#183 =( LENGTH_UNIT ( ) NAMED_UNIT ( * ) SI_UNIT ( .MILLI., .METRE. ) );
#184 = UNCERTAINTY_MEASURE_WITH_UNIT (LENGTH_MEASURE( 1.000000000000000082E-05 ), #154, 'distance_accuracy_value', 'NONE');
#185 = DIRECTION ( 'NONE',  ( 1.000000000000000000, 0.0000000000000000000, 0.0000000000000000000 ) ) ;
#186 = FACE_OUTER_BOUND ( 'NONE', #48, .T. ) ;
#187 = AXIS2_PLACEMENT_3D ( 'NONE', #142, #18, #132 ) ;
#188 = CLOSED_SHELL ( 'NONE', ( #4, #82, #202, #156 ) ) ;
#189 = SURFACE_STYLE_FILL_AREA ( #180 ) ;
#190 = DIRECTION ( 'NONE',  ( 1.000000000000000000, 0.0000000000000000000, 0.0000000000000000000 ) ) ;
#191 = ORIENTED_EDGE ( 'NONE', *, *, #101, .T. ) ;
#192 = AXIS2_PLACEMENT_3D ( 'NONE', #92, #7, #30 ) ;
#193 = PRESENTATION_STYLE_ASSIGNMENT (( #21 ) ) ;
#194 = APPLICATION_CONTEXT ( 'automotive_design' ) ;
#195 = CIRCLE ( 'NONE', #112, 3.300000000000006040 ) ;
#196 = EDGE_LOOP ( 'NONE', ( #118 ) ) ;
#197 = CARTESIAN_POINT ( 'NONE',  ( -2.020667218593132755E-16, 0.0000000000000000000, -2.640000000000017000 ) ) ;
#198 = AXIS2_PLACEMENT_3D ( 'NONE', #148, #190, #107 ) ;
#199 = CARTESIAN_POINT ( 'NONE',  ( 99.63309524416877139, 0.0000000000000000000, 3.300000000000012257 ) ) ;
#200 = FILL_AREA_STYLE ('',( #51 ) ) ;
#201 = PRESENTATION_LAYER_ASSIGNMENT (  '', '', ( #128 ) ) ;
#202 = ADVANCED_FACE ( 'NONE', ( #110, #104 ), #102, .T. ) ;
#203 = FILL_AREA_STYLE_COLOUR ( '', #152 ) ;
#204 = AXIS2_PLACEMENT_3D ( 'NONE', #56, #67, #68 ) ;
#205 = FILL_AREA_STYLE ('',( #12 ) ) ;
#206 =( NAMED_UNIT ( * ) SI_UNIT ( $, .STERADIAN. ) SOLID_ANGLE_UNIT ( ) );
#207 = AXIS2_PLACEMENT_3D ( 'NONE', #176, #49, #58 ) ;
#208 = VERTEX_POINT ( 'NONE', #199 ) ;
#209 = MECHANICAL_DESIGN_GEOMETRIC_PRESENTATION_REPRESENTATION (  '', ( #128 ), #106 ) ;
#210 = COLOUR_RGB ( '',1.000000000000000000, 1.000000000000000000, 0.0000000000000000000 ) ;
#211 = DIRECTION ( 'NONE',  ( 1.000000000000000000, 0.0000000000000000000, 0.0000000000000000000 ) ) ;
#212 = DIRECTION ( 'NONE',  ( 1.000000000000000000, 0.0000000000000000000, 0.0000000000000000000 ) ) ;
#213 = VERTEX_POINT ( 'NONE', #74 ) ;
ENDSEC;
END-ISO-10303-21;
