ISO-10303-21;
HEADER;
FILE_DESCRIPTION (( 'STEP AP214' ),
    '1' );
FILE_NAME ('03-1674.STEP',
    '2021-10-01T05:35:23',
    ( 'USER' ),
    ( '' ),
    'SwSTEP 2.0',
    'SolidWorks 2018',
    '' );
FILE_SCHEMA (( 'AUTOMOTIVE_DESIGN' ));
ENDSEC;

DATA;
#1 = CIRCLE ( 'NONE', #36, 3.400000000000006128 ) ;
#2 = CLOSED_SHELL ( 'NONE', ( #123, #87, #21, #185 ) ) ;
#3 = EDGE_LOOP ( 'NONE', ( #159 ) ) ;
#4 = EDGE_LOOP ( 'NONE', ( #90 ) ) ;
#5 = EDGE_CURVE ( 'NONE', #25, #25, #1, .T. ) ;
#6 = PRESENTATION_STYLE_ASSIGNMENT (( #55 ) ) ;
#7 =( LENGTH_UNIT ( ) NAMED_UNIT ( * ) SI_UNIT ( .MILLI., .METRE. ) );
#8 =( NAMED_UNIT ( * ) PLANE_ANGLE_UNIT ( ) SI_UNIT ( $, .RADIAN. ) );
#9 = VERTEX_POINT ( 'NONE', #79 ) ;
#10 = CARTESIAN_POINT ( 'NONE',  ( 0.6800000000000017142, 0.0000000000000000000, 0.0000000000000000000 ) ) ;
#11 = AXIS2_PLACEMENT_3D ( 'NONE', #186, #205, #13 ) ;
#12 = SURFACE_SIDE_STYLE ('',( #27 ) ) ;
#13 = DIRECTION ( 'NONE',  ( 0.0000000000000000000, 0.0000000000000000000, 1.000000000000000000 ) ) ;
#14 = SURFACE_STYLE_FILL_AREA ( #133 ) ;
#15 = DIRECTION ( 'NONE',  ( 0.0000000000000000000, 0.0000000000000000000, -1.000000000000000000 ) ) ;
#16 = AXIS2_PLACEMENT_3D ( 'NONE', #88, #108, #44 ) ;
#17 = CARTESIAN_POINT ( 'NONE',  ( -2.081899558550500033E-16, 0.0000000000000000000, 0.0000000000000000000 ) ) ;
#18 = VERTEX_POINT ( 'NONE', #131 ) ;
#19 = SURFACE_STYLE_FILL_AREA ( #183 ) ;
#20 = CARTESIAN_POINT ( 'NONE',  ( 107.5916738879314494, 0.0000000000000000000, 0.0000000000000000000 ) ) ;
#21 = ADVANCED_FACE ( 'NONE', ( #70, #105 ), #187, .T. ) ;
#22 = ORIENTED_EDGE ( 'NONE', *, *, #212, .T. ) ;
#23 =( LENGTH_UNIT ( ) NAMED_UNIT ( * ) SI_UNIT ( .MILLI., .METRE. ) );
#24 = EDGE_CURVE ( 'NONE', #18, #18, #95, .T. ) ;
#25 = VERTEX_POINT ( 'NONE', #161 ) ;
#26 = MECHANICAL_DESIGN_GEOMETRIC_PRESENTATION_REPRESENTATION (  '', ( #91 ), #175 ) ;
#27 = SURFACE_STYLE_FILL_AREA ( #120 ) ;
#28 =( NAMED_UNIT ( * ) PLANE_ANGLE_UNIT ( ) SI_UNIT ( $, .RADIAN. ) );
#29 = AXIS2_PLACEMENT_3D ( 'NONE', #150, #56, #43 ) ;
#30 = PRODUCT_DEFINITION_FORMATION_WITH_SPECIFIED_SOURCE ( 'ANY', '', #136, .NOT_KNOWN. ) ;
#31 = DIRECTION ( 'NONE',  ( -1.000000000000000000, -0.0000000000000000000, -0.0000000000000000000 ) ) ;
#32 = EDGE_LOOP ( 'NONE', ( #163 ) ) ;
#33 =( LENGTH_UNIT ( ) NAMED_UNIT ( * ) SI_UNIT ( .MILLI., .METRE. ) );
#34 = MANIFOLD_SOLID_BREP ( 'ºÐÇÒ2[1]', #2 ) ;
#35 = PRODUCT_DEFINITION_SHAPE ( 'NONE', 'NONE',  #127 ) ;
#36 = AXIS2_PLACEMENT_3D ( 'NONE', #118, #78, #37 ) ;
#37 = DIRECTION ( 'NONE',  ( 0.0000000000000000000, 0.0000000000000000000, -1.000000000000000000 ) ) ;
#38 =( LENGTH_UNIT ( ) NAMED_UNIT ( * ) SI_UNIT ( .MILLI., .METRE. ) );
#39 = PLANE ( 'NONE',  #160 ) ;
#40 = ADVANCED_FACE ( 'NONE', ( #51, #110 ), #124, .T. ) ;
#41 = STYLED_ITEM ( 'NONE', ( #45 ), #167 ) ;
#42 = FACE_OUTER_BOUND ( 'NONE', #199, .T. ) ;
#43 = DIRECTION ( 'NONE',  ( 0.0000000000000000000, 0.0000000000000000000, -1.000000000000000000 ) ) ;
#44 = DIRECTION ( 'NONE',  ( 0.0000000000000000000, 0.0000000000000000000, -1.000000000000000000 ) ) ;
#45 = PRESENTATION_STYLE_ASSIGNMENT (( #152 ) ) ;
#46 = AXIS2_PLACEMENT_3D ( 'NONE', #10, #151, #97 ) ;
#47 =( GEOMETRIC_REPRESENTATION_CONTEXT ( 3 ) GLOBAL_UNCERTAINTY_ASSIGNED_CONTEXT ( ( #100 ) ) GLOBAL_UNIT_ASSIGNED_CONTEXT ( ( #7, #8, #94 ) ) REPRESENTATION_CONTEXT ( 'NONE', 'WORKASPACE' ) );
#48 = EDGE_LOOP ( 'NONE', ( #103 ) ) ;
#49 = FILL_AREA_STYLE ('',( #64 ) ) ;
#50 = AXIS2_PLACEMENT_3D ( 'NONE', #17, #179, #164 ) ;
#51 = FACE_OUTER_BOUND ( 'NONE', #119, .T. ) ;
#52 = DIRECTION ( 'NONE',  ( 0.0000000000000000000, 0.0000000000000000000, -1.000000000000000000 ) ) ;
#53 = ORIENTED_EDGE ( 'NONE', *, *, #190, .T. ) ;
#54 =( NAMED_UNIT ( * ) SI_UNIT ( $, .STERADIAN. ) SOLID_ANGLE_UNIT ( ) );
#55 = SURFACE_STYLE_USAGE ( .BOTH. , #12 ) ;
#56 = DIRECTION ( 'NONE',  ( 1.000000000000000000, 0.0000000000000000000, 0.0000000000000000000 ) ) ;
#57 = SURFACE_STYLE_USAGE ( .BOTH. , #102 ) ;
#58 = FACE_OUTER_BOUND ( 'NONE', #93, .T. ) ;
#59 = CARTESIAN_POINT ( 'NONE',  ( -2.081899558550500033E-16, 0.0000000000000000000, 0.0000000000000000000 ) ) ;
#60 = AXIS2_PLACEMENT_3D ( 'NONE', #20, #137, #99 ) ;
#61 = CYLINDRICAL_SURFACE ( 'NONE', #11, 3.400000000000006128 ) ;
#62 =( LENGTH_UNIT ( ) NAMED_UNIT ( * ) SI_UNIT ( .MILLI., .METRE. ) );
#63 = VERTEX_POINT ( 'NONE', #153 ) ;
#64 = FILL_AREA_STYLE_COLOUR ( '', #189 ) ;
#65 = PRESENTATION_STYLE_ASSIGNMENT (( #57 ) ) ;
#66 =( LENGTH_UNIT ( ) NAMED_UNIT ( * ) SI_UNIT ( .MILLI., .METRE. ) );
#67 = CARTESIAN_POINT ( 'NONE',  ( -2.081899558550500033E-16, 3.399999999999999911, 0.0000000000000000000 ) ) ;
#68 = CIRCLE ( 'NONE', #139, 2.720000000000013962 ) ;
#69 = DIRECTION ( 'NONE',  ( 1.000000000000000000, 0.0000000000000000000, 0.0000000000000000000 ) ) ;
#70 = FACE_OUTER_BOUND ( 'NONE', #3, .T. ) ;
#71 =( NAMED_UNIT ( * ) SI_UNIT ( $, .STERADIAN. ) SOLID_ANGLE_UNIT ( ) );
#72 = DIRECTION ( 'NONE',  ( 0.0000000000000000000, 0.0000000000000000000, 1.000000000000000000 ) ) ;
#73 = UNCERTAINTY_MEASURE_WITH_UNIT (LENGTH_MEASURE( 1.000000000000000082E-05 ), #38, 'distance_accuracy_value', 'NONE');
#74 = FILL_AREA_STYLE_COLOUR ( '', #142 ) ;
#75 = PRESENTATION_LAYER_ASSIGNMENT (  '', '', ( #155 ) ) ;
#76 =( NAMED_UNIT ( * ) SI_UNIT ( $, .STERADIAN. ) SOLID_ANGLE_UNIT ( ) );
#77 = CIRCLE ( 'NONE', #16, 3.400000000000006128 ) ;
#78 = DIRECTION ( 'NONE',  ( 1.000000000000000000, 0.0000000000000000000, 0.0000000000000000000 ) ) ;
#79 = CARTESIAN_POINT ( 'NONE',  ( -2.081899558550500033E-16, 0.0000000000000000000, -2.720000000000013962 ) ) ;
#80 = APPLICATION_PROTOCOL_DEFINITION ( 'draft international standard', 'automotive_design', 1998, #112 ) ;
#81 =( GEOMETRIC_REPRESENTATION_CONTEXT ( 3 ) GLOBAL_UNCERTAINTY_ASSIGNED_CONTEXT ( ( #132 ) ) GLOBAL_UNIT_ASSIGNED_CONTEXT ( ( #66, #197, #71 ) ) REPRESENTATION_CONTEXT ( 'NONE', 'WORKASPACE' ) );
#82 = SURFACE_STYLE_USAGE ( .BOTH. , #174 ) ;
#83 = PLANE ( 'NONE',  #29 ) ;
#84 = MECHANICAL_DESIGN_GEOMETRIC_PRESENTATION_REPRESENTATION (  '', ( #155 ), #47 ) ;
#85 = SURFACE_STYLE_FILL_AREA ( #122 ) ;
#86 = FACE_OUTER_BOUND ( 'NONE', #32, .T. ) ;
#87 = ADVANCED_FACE ( 'NONE', ( #58 ), #39, .F. ) ;
#88 = CARTESIAN_POINT ( 'NONE',  ( 39.99999999999999289, 0.0000000000000000000, 0.0000000000000000000 ) ) ;
#89 = EDGE_LOOP ( 'NONE', ( #125 ) ) ;
#90 = ORIENTED_EDGE ( 'NONE', *, *, #5, .F. ) ;
#91 = STYLED_ITEM ( 'NONE', ( #6 ), #141 ) ;
#92 = PRESENTATION_LAYER_ASSIGNMENT (  '', '', ( #180 ) ) ;
#93 = EDGE_LOOP ( 'NONE', ( #22 ) ) ;
#94 =( NAMED_UNIT ( * ) SI_UNIT ( $, .STERADIAN. ) SOLID_ANGLE_UNIT ( ) );
#95 = CIRCLE ( 'NONE', #60, 3.400000000000013234 ) ;
#96 = CARTESIAN_POINT ( 'NONE',  ( 39.99999999999999289, 0.0000000000000000000, 0.0000000000000000000 ) ) ;
#97 = DIRECTION ( 'NONE',  ( 0.0000000000000000000, 0.0000000000000000000, -1.000000000000000000 ) ) ;
#98 = VERTEX_POINT ( 'NONE', #126 ) ;
#99 = DIRECTION ( 'NONE',  ( 0.0000000000000000000, 0.0000000000000000000, 1.000000000000000000 ) ) ;
#100 = UNCERTAINTY_MEASURE_WITH_UNIT (LENGTH_MEASURE( 1.000000000000000082E-05 ), #7, 'distance_accuracy_value', 'NONE');
#101 = ADVANCED_FACE ( 'NONE', ( #86 ), #198, .F. ) ;
#102 = SURFACE_SIDE_STYLE ('',( #19 ) ) ;
#103 = ORIENTED_EDGE ( 'NONE', *, *, #212, .F. ) ;
#104 = DIRECTION ( 'NONE',  ( -1.000000000000000000, -0.0000000000000000000, -0.0000000000000000000 ) ) ;
#105 = FACE_BOUND ( 'NONE', #48, .T. ) ;
#106 =( GEOMETRIC_REPRESENTATION_CONTEXT ( 3 ) GLOBAL_UNCERTAINTY_ASSIGNED_CONTEXT ( ( #157 ) ) GLOBAL_UNIT_ASSIGNED_CONTEXT ( ( #33, #162, #184 ) ) REPRESENTATION_CONTEXT ( 'NONE', 'WORKASPACE' ) );
#107 = CONICAL_SURFACE ( 'NONE', #156, 2414.213562373058721, 1.178097245096167089 ) ;
#108 = DIRECTION ( 'NONE',  ( 1.000000000000000000, 0.0000000000000000000, 0.0000000000000000000 ) ) ;
#109 = ORIENTED_EDGE ( 'NONE', *, *, #207, .T. ) ;
#110 = FACE_OUTER_BOUND ( 'NONE', #89, .T. ) ;
#111 = ORIENTED_EDGE ( 'NONE', *, *, #24, .F. ) ;
#112 = APPLICATION_CONTEXT ( 'automotive_design' ) ;
#113 = FACE_OUTER_BOUND ( 'NONE', #194, .T. ) ;
#114 = ORIENTED_EDGE ( 'NONE', *, *, #5, .T. ) ;
#115 = SURFACE_STYLE_USAGE ( .BOTH. , #176 ) ;
#116 = AXIS2_PLACEMENT_3D ( 'NONE', #96, #200, #15 ) ;
#117 = FACE_OUTER_BOUND ( 'NONE', #191, .T. ) ;
#118 = CARTESIAN_POINT ( 'NONE',  ( 39.99999999999999289, 0.0000000000000000000, 0.0000000000000000000 ) ) ;
#119 = EDGE_LOOP ( 'NONE', ( #109 ) ) ;
#120 = FILL_AREA_STYLE ('',( #202 ) ) ;
#121 = PRESENTATION_LAYER_ASSIGNMENT (  '', '', ( #91 ) ) ;
#122 = FILL_AREA_STYLE ('',( #144 ) ) ;
#123 = ADVANCED_FACE ( 'NONE', ( #117, #208 ), #61, .T. ) ;
#124 = CYLINDRICAL_SURFACE ( 'NONE', #149, 3.400000000000006128 ) ;
#125 = ORIENTED_EDGE ( 'NONE', *, *, #24, .T. ) ;
#126 = CARTESIAN_POINT ( 'NONE',  ( 0.6800000000000017142, 0.0000000000000000000, -3.400000000000006128 ) ) ;
#127 = PRODUCT_DEFINITION ( 'UNKNOWN', '', #30, #154 ) ;
#128 = COLOUR_RGB ( '',1.000000000000000000, 1.000000000000000000, 0.0000000000000000000 ) ;
#129 = DIRECTION ( 'NONE',  ( 1.000000000000000000, 0.0000000000000000000, 0.0000000000000000000 ) ) ;
#130 = PRESENTATION_STYLE_ASSIGNMENT (( #82 ) ) ;
#131 = CARTESIAN_POINT ( 'NONE',  ( 107.5916738879314494, 0.0000000000000000000, 3.400000000000013234 ) ) ;
#132 = UNCERTAINTY_MEASURE_WITH_UNIT (LENGTH_MEASURE( 1.000000000000000082E-05 ), #66, 'distance_accuracy_value', 'NONE');
#133 = FILL_AREA_STYLE ('',( #195 ) ) ;
#134 = COLOUR_RGB ( '',1.000000000000000000, 1.000000000000000000, 0.0000000000000000000 ) ;
#135 = DIRECTION ( 'NONE',  ( 0.0000000000000000000, 0.0000000000000000000, -1.000000000000000000 ) ) ;
#136 = PRODUCT ( '03-1674', '03-1674', '', ( #178 ) ) ;
#137 = DIRECTION ( 'NONE',  ( -1.000000000000000000, -0.0000000000000000000, -0.0000000000000000000 ) ) ;
#138 = CLOSED_SHELL ( 'NONE', ( #101, #40, #167 ) ) ;
#139 = AXIS2_PLACEMENT_3D ( 'NONE', #59, #172, #135 ) ;
#140 = PRESENTATION_STYLE_ASSIGNMENT (( #115 ) ) ;
#141 = MANIFOLD_SOLID_BREP ( 'ºÐÇÒ2[2]', #138 ) ;
#142 = COLOUR_RGB ( '',0.7921568627450980005, 0.8196078431372548767, 0.9333333333333333481 ) ;
#143 = MECHANICAL_DESIGN_GEOMETRIC_PRESENTATION_REPRESENTATION (  '', ( #180 ), #106 ) ;
#144 = FILL_AREA_STYLE_COLOUR ( '', #128 ) ;
#145 =( GEOMETRIC_REPRESENTATION_CONTEXT ( 3 ) GLOBAL_UNCERTAINTY_ASSIGNED_CONTEXT ( ( #204 ) ) GLOBAL_UNIT_ASSIGNED_CONTEXT ( ( #23, #147, #76 ) ) REPRESENTATION_CONTEXT ( 'NONE', 'WORKASPACE' ) );
#146 = SHAPE_DEFINITION_REPRESENTATION ( #35, #148 ) ;
#147 =( NAMED_UNIT ( * ) PLANE_ANGLE_UNIT ( ) SI_UNIT ( $, .RADIAN. ) );
#148 = ADVANCED_BREP_SHAPE_REPRESENTATION ( '03-1674', ( #34, #141, #169 ), #182 ) ;
#149 = AXIS2_PLACEMENT_3D ( 'NONE', #213, #104, #181 ) ;
#150 = CARTESIAN_POINT ( 'NONE',  ( 39.99999999999999289, 0.0000000000000000000, 0.0000000000000000000 ) ) ;
#151 = DIRECTION ( 'NONE',  ( 1.000000000000000000, 0.0000000000000000000, 0.0000000000000000000 ) ) ;
#152 = SURFACE_STYLE_USAGE ( .BOTH. , #211 ) ;
#153 = CARTESIAN_POINT ( 'NONE',  ( 39.99999999999999289, 0.0000000000000000000, -3.400000000000006128 ) ) ;
#154 = PRODUCT_DEFINITION_CONTEXT ( 'detailed design', #112, 'design' ) ;
#155 = STYLED_ITEM ( 'NONE', ( #65 ), #34 ) ;
#156 = AXIS2_PLACEMENT_3D ( 'NONE', #210, #31, #72 ) ;
#157 = UNCERTAINTY_MEASURE_WITH_UNIT (LENGTH_MEASURE( 1.000000000000000082E-05 ), #33, 'distance_accuracy_value', 'NONE');
#158 = APPLICATION_CONTEXT ( 'automotive_design' ) ;
#159 = ORIENTED_EDGE ( 'NONE', *, *, #190, .F. ) ;
#160 = AXIS2_PLACEMENT_3D ( 'NONE', #67, #129, #52 ) ;
#161 = CARTESIAN_POINT ( 'NONE',  ( 39.99999999999999289, 0.0000000000000000000, -3.400000000000006128 ) ) ;
#162 =( NAMED_UNIT ( * ) PLANE_ANGLE_UNIT ( ) SI_UNIT ( $, .RADIAN. ) );
#163 = ORIENTED_EDGE ( 'NONE', *, *, #207, .F. ) ;
#164 = DIRECTION ( 'NONE',  ( 0.0000000000000000000, 0.0000000000000000000, -1.000000000000000000 ) ) ;
#165 = PRESENTATION_LAYER_ASSIGNMENT (  '', '', ( #41 ) ) ;
#166 = PRESENTATION_LAYER_ASSIGNMENT (  '', '', ( #177 ) ) ;
#167 = ADVANCED_FACE ( 'NONE', ( #42 ), #107, .T. ) ;
#168 = CARTESIAN_POINT ( 'NONE',  ( 0.0000000000000000000, 0.0000000000000000000, 0.0000000000000000000 ) ) ;
#169 = AXIS2_PLACEMENT_3D ( 'NONE', #168, #196, #69 ) ;
#170 =( NAMED_UNIT ( * ) SI_UNIT ( $, .STERADIAN. ) SOLID_ANGLE_UNIT ( ) );
#171 = UNCERTAINTY_MEASURE_WITH_UNIT (LENGTH_MEASURE( 1.000000000000000082E-05 ), #62, 'distance_accuracy_value', 'NONE');
#172 = DIRECTION ( 'NONE',  ( -1.000000000000000000, -0.0000000000000000000, -0.0000000000000000000 ) ) ;
#173 = SURFACE_STYLE_FILL_AREA ( #49 ) ;
#174 = SURFACE_SIDE_STYLE ('',( #173 ) ) ;
#175 =( GEOMETRIC_REPRESENTATION_CONTEXT ( 3 ) GLOBAL_UNCERTAINTY_ASSIGNED_CONTEXT ( ( #73 ) ) GLOBAL_UNIT_ASSIGNED_CONTEXT ( ( #38, #203, #54 ) ) REPRESENTATION_CONTEXT ( 'NONE', 'WORKASPACE' ) );
#176 = SURFACE_SIDE_STYLE ('',( #14 ) ) ;
#177 = STYLED_ITEM ( 'NONE', ( #130 ), #148 ) ;
#178 = PRODUCT_CONTEXT ( 'NONE', #158, 'mechanical' ) ;
#179 = DIRECTION ( 'NONE',  ( 1.000000000000000000, 0.0000000000000000000, 0.0000000000000000000 ) ) ;
#180 = STYLED_ITEM ( 'NONE', ( #140 ), #40 ) ;
#181 = DIRECTION ( 'NONE',  ( 0.0000000000000000000, 0.0000000000000000000, 1.000000000000000000 ) ) ;
#182 =( GEOMETRIC_REPRESENTATION_CONTEXT ( 3 ) GLOBAL_UNCERTAINTY_ASSIGNED_CONTEXT ( ( #171 ) ) GLOBAL_UNIT_ASSIGNED_CONTEXT ( ( #62, #28, #170 ) ) REPRESENTATION_CONTEXT ( 'NONE', 'WORKASPACE' ) );
#183 = FILL_AREA_STYLE ('',( #74 ) ) ;
#184 =( NAMED_UNIT ( * ) SI_UNIT ( $, .STERADIAN. ) SOLID_ANGLE_UNIT ( ) );
#185 = ADVANCED_FACE ( 'NONE', ( #113 ), #83, .T. ) ;
#186 = CARTESIAN_POINT ( 'NONE',  ( 0.0000000000000000000, 0.0000000000000000000, 0.0000000000000000000 ) ) ;
#187 = CONICAL_SURFACE ( 'NONE', #50, 2.720000000000013962, 0.7853981633974412846 ) ;
#188 = MECHANICAL_DESIGN_GEOMETRIC_PRESENTATION_REPRESENTATION (  '', ( #41 ), #145 ) ;
#189 = COLOUR_RGB ( '',0.7921568627450980005, 0.8196078431372548767, 0.9333333333333333481 ) ;
#190 = EDGE_CURVE ( 'NONE', #98, #98, #193, .T. ) ;
#191 = EDGE_LOOP ( 'NONE', ( #53 ) ) ;
#192 = APPLICATION_PROTOCOL_DEFINITION ( 'draft international standard', 'automotive_design', 1998, #158 ) ;
#193 = CIRCLE ( 'NONE', #46, 3.400000000000006128 ) ;
#194 = EDGE_LOOP ( 'NONE', ( #114 ) ) ;
#195 = FILL_AREA_STYLE_COLOUR ( '', #134 ) ;
#196 = DIRECTION ( 'NONE',  ( 0.0000000000000000000, 0.0000000000000000000, 1.000000000000000000 ) ) ;
#197 =( NAMED_UNIT ( * ) PLANE_ANGLE_UNIT ( ) SI_UNIT ( $, .RADIAN. ) );
#198 = PLANE ( 'NONE',  #116 ) ;
#199 = EDGE_LOOP ( 'NONE', ( #111 ) ) ;
#200 = DIRECTION ( 'NONE',  ( 1.000000000000000000, 0.0000000000000000000, 0.0000000000000000000 ) ) ;
#201 = MECHANICAL_DESIGN_GEOMETRIC_PRESENTATION_REPRESENTATION (  '', ( #177 ), #81 ) ;
#202 = FILL_AREA_STYLE_COLOUR ( '', #206 ) ;
#203 =( NAMED_UNIT ( * ) PLANE_ANGLE_UNIT ( ) SI_UNIT ( $, .RADIAN. ) );
#204 = UNCERTAINTY_MEASURE_WITH_UNIT (LENGTH_MEASURE( 1.000000000000000082E-05 ), #23, 'distance_accuracy_value', 'NONE');
#205 = DIRECTION ( 'NONE',  ( -1.000000000000000000, -0.0000000000000000000, -0.0000000000000000000 ) ) ;
#206 = COLOUR_RGB ( '',0.7921568627450980005, 0.8196078431372548767, 0.9333333333333333481 ) ;
#207 = EDGE_CURVE ( 'NONE', #63, #63, #77, .T. ) ;
#208 = FACE_OUTER_BOUND ( 'NONE', #4, .T. ) ;
#209 = PRODUCT_RELATED_PRODUCT_CATEGORY ( 'part', '', ( #136 ) ) ;
#210 = CARTESIAN_POINT ( 'NONE',  ( -891.0000000000000000, 0.0000000000000000000, 0.0000000000000000000 ) ) ;
#211 = SURFACE_SIDE_STYLE ('',( #85 ) ) ;
#212 = EDGE_CURVE ( 'NONE', #9, #9, #68, .T. ) ;
#213 = CARTESIAN_POINT ( 'NONE',  ( 0.0000000000000000000, 0.0000000000000000000, 0.0000000000000000000 ) ) ;
ENDSEC;
END-ISO-10303-21;
