ISO-10303-21;
HEADER;
FILE_DESCRIPTION (( 'STEP AP214' ),
    '1' );
FILE_NAME ('03-1676.STEP',
    '2021-10-01T05:36:00',
    ( 'USER' ),
    ( '' ),
    'SwSTEP 2.0',
    'SolidWorks 2018',
    '' );
FILE_SCHEMA (( 'AUTOMOTIVE_DESIGN' ));
ENDSEC;

DATA;
#1 = MANIFOLD_SOLID_BREP ( 'ºÐÇÒ2[2]', #105 ) ;
#2 = CARTESIAN_POINT ( 'NONE',  ( -2.143131898507868297E-16, 0.0000000000000000000, -2.800000000000010925 ) ) ;
#3 = PRESENTATION_LAYER_ASSIGNMENT (  '', '', ( #179 ) ) ;
#4 = CARTESIAN_POINT ( 'NONE',  ( 107.5502525316941416, 0.0000000000000000000, 3.500000000000012879 ) ) ;
#5 = EDGE_LOOP ( 'NONE', ( #62 ) ) ;
#6 =( LENGTH_UNIT ( ) NAMED_UNIT ( * ) SI_UNIT ( .MILLI., .METRE. ) );
#7 = DIRECTION ( 'NONE',  ( 0.0000000000000000000, 0.0000000000000000000, -1.000000000000000000 ) ) ;
#8 = EDGE_CURVE ( 'NONE', #123, #123, #100, .T. ) ;
#9 = MECHANICAL_DESIGN_GEOMETRIC_PRESENTATION_REPRESENTATION (  '', ( #197 ), #56 ) ;
#10 = DIRECTION ( 'NONE',  ( 0.0000000000000000000, 0.0000000000000000000, 1.000000000000000000 ) ) ;
#11 = COLOUR_RGB ( '',1.000000000000000000, 1.000000000000000000, 0.0000000000000000000 ) ;
#12 = AXIS2_PLACEMENT_3D ( 'NONE', #31, #51, #82 ) ;
#13 = FACE_OUTER_BOUND ( 'NONE', #195, .T. ) ;
#14 = UNCERTAINTY_MEASURE_WITH_UNIT (LENGTH_MEASURE( 1.000000000000000082E-05 ), #6, 'distance_accuracy_value', 'NONE');
#15 = FILL_AREA_STYLE ('',( #207 ) ) ;
#16 = SURFACE_SIDE_STYLE ('',( #183 ) ) ;
#17 = AXIS2_PLACEMENT_3D ( 'NONE', #79, #211, #137 ) ;
#18 = CARTESIAN_POINT ( 'NONE',  ( 0.6999999999999964029, 0.0000000000000000000, 0.0000000000000000000 ) ) ;
#19 = UNCERTAINTY_MEASURE_WITH_UNIT (LENGTH_MEASURE( 1.000000000000000082E-05 ), #158, 'distance_accuracy_value', 'NONE');
#20 = PRESENTATION_STYLE_ASSIGNMENT (( #104 ) ) ;
#21 = CARTESIAN_POINT ( 'NONE',  ( 39.99999999999999289, 0.0000000000000000000, -3.500000000000006661 ) ) ;
#22 = FILL_AREA_STYLE_COLOUR ( '', #11 ) ;
#23 = STYLED_ITEM ( 'NONE', ( #129 ), #1 ) ;
#24 = SURFACE_STYLE_USAGE ( .BOTH. , #141 ) ;
#25 = COLOUR_RGB ( '',0.7921568627450980005, 0.8196078431372548767, 0.9333333333333333481 ) ;
#26 = AXIS2_PLACEMENT_3D ( 'NONE', #174, #29, #91 ) ;
#27 = APPLICATION_PROTOCOL_DEFINITION ( 'draft international standard', 'automotive_design', 1998, #106 ) ;
#28 = MANIFOLD_SOLID_BREP ( 'ºÐÇÒ2[1]', #46 ) ;
#29 = DIRECTION ( 'NONE',  ( -1.000000000000000000, -0.0000000000000000000, -0.0000000000000000000 ) ) ;
#30 = EDGE_LOOP ( 'NONE', ( #109 ) ) ;
#31 = CARTESIAN_POINT ( 'NONE',  ( 39.99999999999999289, 0.0000000000000000000, 0.0000000000000000000 ) ) ;
#32 =( LENGTH_UNIT ( ) NAMED_UNIT ( * ) SI_UNIT ( .MILLI., .METRE. ) );
#33 = SURFACE_SIDE_STYLE ('',( #170 ) ) ;
#34 = PRESENTATION_LAYER_ASSIGNMENT (  '', '', ( #23 ) ) ;
#35 = COLOUR_RGB ( '',1.000000000000000000, 1.000000000000000000, 0.0000000000000000000 ) ;
#36 = DIRECTION ( 'NONE',  ( 0.0000000000000000000, 0.0000000000000000000, -1.000000000000000000 ) ) ;
#37 = ADVANCED_FACE ( 'NONE', ( #49, #150 ), #45, .T. ) ;
#38 = CONICAL_SURFACE ( 'NONE', #59, 2414.213562373069180, 1.178097245096168644 ) ;
#39 = ADVANCED_BREP_SHAPE_REPRESENTATION ( '03-1676', ( #28, #1, #94 ), #50 ) ;
#40 = ORIENTED_EDGE ( 'NONE', *, *, #126, .F. ) ;
#41 = AXIS2_PLACEMENT_3D ( 'NONE', #118, #103, #7 ) ;
#42 =( NAMED_UNIT ( * ) SI_UNIT ( $, .STERADIAN. ) SOLID_ANGLE_UNIT ( ) );
#43 =( NAMED_UNIT ( * ) SI_UNIT ( $, .STERADIAN. ) SOLID_ANGLE_UNIT ( ) );
#44 = DIRECTION ( 'NONE',  ( 0.0000000000000000000, 0.0000000000000000000, -1.000000000000000000 ) ) ;
#45 = CONICAL_SURFACE ( 'NONE', #64, 2.800000000000010925, 0.7853981633974477239 ) ;
#46 = CLOSED_SHELL ( 'NONE', ( #57, #113, #37, #181 ) ) ;
#47 = APPLICATION_PROTOCOL_DEFINITION ( 'draft international standard', 'automotive_design', 1998, #75 ) ;
#48 =( NAMED_UNIT ( * ) SI_UNIT ( $, .STERADIAN. ) SOLID_ANGLE_UNIT ( ) );
#49 = FACE_OUTER_BOUND ( 'NONE', #30, .T. ) ;
#50 =( GEOMETRIC_REPRESENTATION_CONTEXT ( 3 ) GLOBAL_UNCERTAINTY_ASSIGNED_CONTEXT ( ( #108 ) ) GLOBAL_UNIT_ASSIGNED_CONTEXT ( ( #86, #203, #42 ) ) REPRESENTATION_CONTEXT ( 'NONE', 'WORKASPACE' ) );
#51 = DIRECTION ( 'NONE',  ( 1.000000000000000000, 0.0000000000000000000, 0.0000000000000000000 ) ) ;
#52 = PRODUCT_DEFINITION ( 'UNKNOWN', '', #134, #107 ) ;
#53 = FILL_AREA_STYLE ('',( #96 ) ) ;
#54 = SURFACE_STYLE_USAGE ( .BOTH. , #33 ) ;
#55 =( NAMED_UNIT ( * ) PLANE_ANGLE_UNIT ( ) SI_UNIT ( $, .RADIAN. ) );
#56 =( GEOMETRIC_REPRESENTATION_CONTEXT ( 3 ) GLOBAL_UNCERTAINTY_ASSIGNED_CONTEXT ( ( #14 ) ) GLOBAL_UNIT_ASSIGNED_CONTEXT ( ( #6, #142, #48 ) ) REPRESENTATION_CONTEXT ( 'NONE', 'WORKASPACE' ) );
#57 = ADVANCED_FACE ( 'NONE', ( #208, #127 ), #204, .T. ) ;
#58 = CARTESIAN_POINT ( 'NONE',  ( 39.99999999999999289, 0.0000000000000000000, -3.500000000000006661 ) ) ;
#59 = AXIS2_PLACEMENT_3D ( 'NONE', #128, #200, #171 ) ;
#60 = CARTESIAN_POINT ( 'NONE',  ( 107.5502525316941416, 0.0000000000000000000, 0.0000000000000000000 ) ) ;
#61 = FACE_OUTER_BOUND ( 'NONE', #5, .T. ) ;
#62 = ORIENTED_EDGE ( 'NONE', *, *, #138, .F. ) ;
#63 = CIRCLE ( 'NONE', #12, 3.500000000000006661 ) ;
#64 = AXIS2_PLACEMENT_3D ( 'NONE', #131, #192, #44 ) ;
#65 = CIRCLE ( 'NONE', #97, 3.500000000000006661 ) ;
#66 = SURFACE_STYLE_FILL_AREA ( #92 ) ;
#67 = CARTESIAN_POINT ( 'NONE',  ( 39.99999999999999289, 0.0000000000000000000, 0.0000000000000000000 ) ) ;
#68 =( NAMED_UNIT ( * ) PLANE_ANGLE_UNIT ( ) SI_UNIT ( $, .RADIAN. ) );
#69 = ADVANCED_FACE ( 'NONE', ( #172 ), #210, .F. ) ;
#70 = EDGE_LOOP ( 'NONE', ( #74 ) ) ;
#71 = STYLED_ITEM ( 'NONE', ( #144 ), #28 ) ;
#72 =( NAMED_UNIT ( * ) PLANE_ANGLE_UNIT ( ) SI_UNIT ( $, .RADIAN. ) );
#73 = MECHANICAL_DESIGN_GEOMETRIC_PRESENTATION_REPRESENTATION (  '', ( #173 ), #164 ) ;
#74 = ORIENTED_EDGE ( 'NONE', *, *, #126, .T. ) ;
#75 = APPLICATION_CONTEXT ( 'automotive_design' ) ;
#76 = DIRECTION ( 'NONE',  ( 0.0000000000000000000, 0.0000000000000000000, 1.000000000000000000 ) ) ;
#77 = AXIS2_PLACEMENT_3D ( 'NONE', #60, #125, #10 ) ;
#78 = PRESENTATION_STYLE_ASSIGNMENT (( #165 ) ) ;
#79 = CARTESIAN_POINT ( 'NONE',  ( 39.99999999999999289, 0.0000000000000000000, 0.0000000000000000000 ) ) ;
#80 = SHAPE_DEFINITION_REPRESENTATION ( #198, #39 ) ;
#81 = ORIENTED_EDGE ( 'NONE', *, *, #151, .T. ) ;
#82 = DIRECTION ( 'NONE',  ( 0.0000000000000000000, 0.0000000000000000000, -1.000000000000000000 ) ) ;
#83 =( NAMED_UNIT ( * ) SI_UNIT ( $, .STERADIAN. ) SOLID_ANGLE_UNIT ( ) );
#84 = CIRCLE ( 'NONE', #143, 2.800000000000010925 ) ;
#85 = PRODUCT ( '03-1676', '03-1676', '', ( #93 ) ) ;
#86 =( LENGTH_UNIT ( ) NAMED_UNIT ( * ) SI_UNIT ( .MILLI., .METRE. ) );
#87 = UNCERTAINTY_MEASURE_WITH_UNIT (LENGTH_MEASURE( 1.000000000000000082E-05 ), #166, 'distance_accuracy_value', 'NONE');
#88 = DIRECTION ( 'NONE',  ( 0.0000000000000000000, 0.0000000000000000000, -1.000000000000000000 ) ) ;
#89 = DIRECTION ( 'NONE',  ( 0.0000000000000000000, 0.0000000000000000000, -1.000000000000000000 ) ) ;
#90 = EDGE_LOOP ( 'NONE', ( #154 ) ) ;
#91 = DIRECTION ( 'NONE',  ( 0.0000000000000000000, 0.0000000000000000000, 1.000000000000000000 ) ) ;
#92 = FILL_AREA_STYLE ('',( #187 ) ) ;
#93 = PRODUCT_CONTEXT ( 'NONE', #75, 'mechanical' ) ;
#94 = AXIS2_PLACEMENT_3D ( 'NONE', #182, #76, #189 ) ;
#95 = DIRECTION ( 'NONE',  ( 1.000000000000000000, 0.0000000000000000000, 0.0000000000000000000 ) ) ;
#96 = FILL_AREA_STYLE_COLOUR ( '', #35 ) ;
#97 = AXIS2_PLACEMENT_3D ( 'NONE', #18, #160, #36 ) ;
#98 = FACE_OUTER_BOUND ( 'NONE', #70, .T. ) ;
#99 = CARTESIAN_POINT ( 'NONE',  ( 0.6999999999999964029, 0.0000000000000000000, -3.500000000000006661 ) ) ;
#100 = CIRCLE ( 'NONE', #156, 3.500000000000006661 ) ;
#101 = MECHANICAL_DESIGN_GEOMETRIC_PRESENTATION_REPRESENTATION (  '', ( #71 ), #120 ) ;
#102 = SURFACE_STYLE_FILL_AREA ( #178 ) ;
#103 = DIRECTION ( 'NONE',  ( 1.000000000000000000, 0.0000000000000000000, 0.0000000000000000000 ) ) ;
#104 = SURFACE_STYLE_USAGE ( .BOTH. , #201 ) ;
#105 = CLOSED_SHELL ( 'NONE', ( #69, #135, #194 ) ) ;
#106 = APPLICATION_CONTEXT ( 'automotive_design' ) ;
#107 = PRODUCT_DEFINITION_CONTEXT ( 'detailed design', #106, 'design' ) ;
#108 = UNCERTAINTY_MEASURE_WITH_UNIT (LENGTH_MEASURE( 1.000000000000000082E-05 ), #86, 'distance_accuracy_value', 'NONE');
#109 = ORIENTED_EDGE ( 'NONE', *, *, #151, .F. ) ;
#110 = EDGE_CURVE ( 'NONE', #169, #169, #84, .T. ) ;
#111 = SURFACE_SIDE_STYLE ('',( #119 ) ) ;
#112 = DIRECTION ( 'NONE',  ( 0.0000000000000000000, 0.0000000000000000000, -1.000000000000000000 ) ) ;
#113 = ADVANCED_FACE ( 'NONE', ( #168 ), #184, .F. ) ;
#114 = VERTEX_POINT ( 'NONE', #99 ) ;
#115 = EDGE_LOOP ( 'NONE', ( #81 ) ) ;
#116 = UNCERTAINTY_MEASURE_WITH_UNIT (LENGTH_MEASURE( 1.000000000000000082E-05 ), #32, 'distance_accuracy_value', 'NONE');
#117 = DIRECTION ( 'NONE',  ( 0.0000000000000000000, 0.0000000000000000000, 1.000000000000000000 ) ) ;
#118 = CARTESIAN_POINT ( 'NONE',  ( -2.143131898507868297E-16, 3.499999999999999556, 0.0000000000000000000 ) ) ;
#119 = SURFACE_STYLE_FILL_AREA ( #53 ) ;
#120 =( GEOMETRIC_REPRESENTATION_CONTEXT ( 3 ) GLOBAL_UNCERTAINTY_ASSIGNED_CONTEXT ( ( #175 ) ) GLOBAL_UNIT_ASSIGNED_CONTEXT ( ( #152, #55, #167 ) ) REPRESENTATION_CONTEXT ( 'NONE', 'WORKASPACE' ) );
#121 = PRODUCT_RELATED_PRODUCT_CATEGORY ( 'part', '', ( #85 ) ) ;
#122 = CARTESIAN_POINT ( 'NONE',  ( -2.143131898507868297E-16, 0.0000000000000000000, 0.0000000000000000000 ) ) ;
#123 = VERTEX_POINT ( 'NONE', #58 ) ;
#124 = EDGE_LOOP ( 'NONE', ( #136 ) ) ;
#125 = DIRECTION ( 'NONE',  ( -1.000000000000000000, -0.0000000000000000000, -0.0000000000000000000 ) ) ;
#126 = EDGE_CURVE ( 'NONE', #199, #199, #63, .T. ) ;
#127 = FACE_OUTER_BOUND ( 'NONE', #146, .T. ) ;
#128 = CARTESIAN_POINT ( 'NONE',  ( -891.0000000000000000, 0.0000000000000000000, 0.0000000000000000000 ) ) ;
#129 = PRESENTATION_STYLE_ASSIGNMENT (( #54 ) ) ;
#130 = FILL_AREA_STYLE_COLOUR ( '', #25 ) ;
#131 = CARTESIAN_POINT ( 'NONE',  ( -2.143131898507868297E-16, 0.0000000000000000000, 0.0000000000000000000 ) ) ;
#132 = SURFACE_STYLE_USAGE ( .BOTH. , #16 ) ;
#133 =( GEOMETRIC_REPRESENTATION_CONTEXT ( 3 ) GLOBAL_UNCERTAINTY_ASSIGNED_CONTEXT ( ( #87 ) ) GLOBAL_UNIT_ASSIGNED_CONTEXT ( ( #166, #68, #83 ) ) REPRESENTATION_CONTEXT ( 'NONE', 'WORKASPACE' ) );
#134 = PRODUCT_DEFINITION_FORMATION_WITH_SPECIFIED_SOURCE ( 'ANY', '', #85, .NOT_KNOWN. ) ;
#135 = ADVANCED_FACE ( 'NONE', ( #13, #196 ), #145, .T. ) ;
#136 = ORIENTED_EDGE ( 'NONE', *, *, #8, .F. ) ;
#137 = DIRECTION ( 'NONE',  ( 0.0000000000000000000, 0.0000000000000000000, -1.000000000000000000 ) ) ;
#138 = EDGE_CURVE ( 'NONE', #162, #162, #186, .T. ) ;
#139 = ORIENTED_EDGE ( 'NONE', *, *, #110, .T. ) ;
#140 = DIRECTION ( 'NONE',  ( -1.000000000000000000, -0.0000000000000000000, -0.0000000000000000000 ) ) ;
#141 = SURFACE_SIDE_STYLE ('',( #102 ) ) ;
#142 =( NAMED_UNIT ( * ) PLANE_ANGLE_UNIT ( ) SI_UNIT ( $, .RADIAN. ) );
#143 = AXIS2_PLACEMENT_3D ( 'NONE', #122, #140, #88 ) ;
#144 = PRESENTATION_STYLE_ASSIGNMENT (( #132 ) ) ;
#145 = CYLINDRICAL_SURFACE ( 'NONE', #209, 3.500000000000006661 ) ;
#146 = EDGE_LOOP ( 'NONE', ( #40 ) ) ;
#147 = CARTESIAN_POINT ( 'NONE',  ( 39.99999999999999289, 0.0000000000000000000, 0.0000000000000000000 ) ) ;
#148 = PRESENTATION_LAYER_ASSIGNMENT (  '', '', ( #71 ) ) ;
#149 = FILL_AREA_STYLE ('',( #130 ) ) ;
#150 = FACE_BOUND ( 'NONE', #163, .T. ) ;
#151 = EDGE_CURVE ( 'NONE', #114, #114, #65, .T. ) ;
#152 =( LENGTH_UNIT ( ) NAMED_UNIT ( * ) SI_UNIT ( .MILLI., .METRE. ) );
#153 = PRESENTATION_LAYER_ASSIGNMENT (  '', '', ( #173 ) ) ;
#154 = ORIENTED_EDGE ( 'NONE', *, *, #138, .T. ) ;
#155 = DIRECTION ( 'NONE',  ( 1.000000000000000000, 0.0000000000000000000, 0.0000000000000000000 ) ) ;
#156 = AXIS2_PLACEMENT_3D ( 'NONE', #67, #95, #112 ) ;
#157 = ORIENTED_EDGE ( 'NONE', *, *, #8, .T. ) ;
#158 =( LENGTH_UNIT ( ) NAMED_UNIT ( * ) SI_UNIT ( .MILLI., .METRE. ) );
#159 =( NAMED_UNIT ( * ) PLANE_ANGLE_UNIT ( ) SI_UNIT ( $, .RADIAN. ) );
#160 = DIRECTION ( 'NONE',  ( 1.000000000000000000, 0.0000000000000000000, 0.0000000000000000000 ) ) ;
#161 = PLANE ( 'NONE',  #17 ) ;
#162 = VERTEX_POINT ( 'NONE', #4 ) ;
#163 = EDGE_LOOP ( 'NONE', ( #191 ) ) ;
#164 =( GEOMETRIC_REPRESENTATION_CONTEXT ( 3 ) GLOBAL_UNCERTAINTY_ASSIGNED_CONTEXT ( ( #116 ) ) GLOBAL_UNIT_ASSIGNED_CONTEXT ( ( #32, #72, #43 ) ) REPRESENTATION_CONTEXT ( 'NONE', 'WORKASPACE' ) );
#165 = SURFACE_STYLE_USAGE ( .BOTH. , #111 ) ;
#166 =( LENGTH_UNIT ( ) NAMED_UNIT ( * ) SI_UNIT ( .MILLI., .METRE. ) );
#167 =( NAMED_UNIT ( * ) SI_UNIT ( $, .STERADIAN. ) SOLID_ANGLE_UNIT ( ) );
#168 = FACE_OUTER_BOUND ( 'NONE', #212, .T. ) ;
#169 = VERTEX_POINT ( 'NONE', #2 ) ;
#170 = SURFACE_STYLE_FILL_AREA ( #149 ) ;
#171 = DIRECTION ( 'NONE',  ( 0.0000000000000000000, 0.0000000000000000000, 1.000000000000000000 ) ) ;
#172 = FACE_OUTER_BOUND ( 'NONE', #124, .T. ) ;
#173 = STYLED_ITEM ( 'NONE', ( #78 ), #135 ) ;
#174 = CARTESIAN_POINT ( 'NONE',  ( 0.0000000000000000000, 0.0000000000000000000, 0.0000000000000000000 ) ) ;
#175 = UNCERTAINTY_MEASURE_WITH_UNIT (LENGTH_MEASURE( 1.000000000000000082E-05 ), #152, 'distance_accuracy_value', 'NONE');
#176 = DIRECTION ( 'NONE',  ( -1.000000000000000000, -0.0000000000000000000, -0.0000000000000000000 ) ) ;
#177 = CARTESIAN_POINT ( 'NONE',  ( 0.0000000000000000000, 0.0000000000000000000, 0.0000000000000000000 ) ) ;
#178 = FILL_AREA_STYLE ('',( #22 ) ) ;
#179 = STYLED_ITEM ( 'NONE', ( #180 ), #194 ) ;
#180 = PRESENTATION_STYLE_ASSIGNMENT (( #24 ) ) ;
#181 = ADVANCED_FACE ( 'NONE', ( #98 ), #161, .T. ) ;
#182 = CARTESIAN_POINT ( 'NONE',  ( 0.0000000000000000000, 0.0000000000000000000, 0.0000000000000000000 ) ) ;
#183 = SURFACE_STYLE_FILL_AREA ( #15 ) ;
#184 = PLANE ( 'NONE',  #41 ) ;
#185 = MECHANICAL_DESIGN_GEOMETRIC_PRESENTATION_REPRESENTATION (  '', ( #23 ), #133 ) ;
#186 = CIRCLE ( 'NONE', #77, 3.500000000000012879 ) ;
#187 = FILL_AREA_STYLE_COLOUR ( '', #206 ) ;
#188 = COLOUR_RGB ( '',0.7921568627450980005, 0.8196078431372548767, 0.9333333333333333481 ) ;
#189 = DIRECTION ( 'NONE',  ( 1.000000000000000000, 0.0000000000000000000, 0.0000000000000000000 ) ) ;
#190 = PRESENTATION_LAYER_ASSIGNMENT (  '', '', ( #197 ) ) ;
#191 = ORIENTED_EDGE ( 'NONE', *, *, #110, .F. ) ;
#192 = DIRECTION ( 'NONE',  ( 1.000000000000000000, 0.0000000000000000000, 0.0000000000000000000 ) ) ;
#193 =( GEOMETRIC_REPRESENTATION_CONTEXT ( 3 ) GLOBAL_UNCERTAINTY_ASSIGNED_CONTEXT ( ( #19 ) ) GLOBAL_UNIT_ASSIGNED_CONTEXT ( ( #158, #159, #202 ) ) REPRESENTATION_CONTEXT ( 'NONE', 'WORKASPACE' ) );
#194 = ADVANCED_FACE ( 'NONE', ( #61 ), #38, .T. ) ;
#195 = EDGE_LOOP ( 'NONE', ( #157 ) ) ;
#196 = FACE_OUTER_BOUND ( 'NONE', #90, .T. ) ;
#197 = STYLED_ITEM ( 'NONE', ( #20 ), #39 ) ;
#198 = PRODUCT_DEFINITION_SHAPE ( 'NONE', 'NONE',  #52 ) ;
#199 = VERTEX_POINT ( 'NONE', #21 ) ;
#200 = DIRECTION ( 'NONE',  ( -1.000000000000000000, -0.0000000000000000000, -0.0000000000000000000 ) ) ;
#201 = SURFACE_SIDE_STYLE ('',( #66 ) ) ;
#202 =( NAMED_UNIT ( * ) SI_UNIT ( $, .STERADIAN. ) SOLID_ANGLE_UNIT ( ) );
#203 =( NAMED_UNIT ( * ) PLANE_ANGLE_UNIT ( ) SI_UNIT ( $, .RADIAN. ) );
#204 = CYLINDRICAL_SURFACE ( 'NONE', #26, 3.500000000000006661 ) ;
#205 = MECHANICAL_DESIGN_GEOMETRIC_PRESENTATION_REPRESENTATION (  '', ( #179 ), #193 ) ;
#206 = COLOUR_RGB ( '',0.7921568627450980005, 0.8196078431372548767, 0.9333333333333333481 ) ;
#207 = FILL_AREA_STYLE_COLOUR ( '', #188 ) ;
#208 = FACE_OUTER_BOUND ( 'NONE', #115, .T. ) ;
#209 = AXIS2_PLACEMENT_3D ( 'NONE', #177, #176, #117 ) ;
#210 = PLANE ( 'NONE',  #213 ) ;
#211 = DIRECTION ( 'NONE',  ( 1.000000000000000000, 0.0000000000000000000, 0.0000000000000000000 ) ) ;
#212 = EDGE_LOOP ( 'NONE', ( #139 ) ) ;
#213 = AXIS2_PLACEMENT_3D ( 'NONE', #147, #155, #89 ) ;
ENDSEC;
END-ISO-10303-21;
