ISO-10303-21;
HEADER;
FILE_DESCRIPTION (( 'STEP AP214' ),
    '1' );
FILE_NAME ('03-1677.STEP',
    '2021-10-01T05:36:19',
    ( 'USER' ),
    ( '' ),
    'SwSTEP 2.0',
    'SolidWorks 2018',
    '' );
FILE_SCHEMA (( 'AUTOMOTIVE_DESIGN' ));
ENDSEC;

DATA;
#1 = DIRECTION ( 'NONE',  ( -1.000000000000000000, -0.0000000000000000000, -0.0000000000000000000 ) ) ;
#2 = CIRCLE ( 'NONE', #119, 3.550000000000012701 ) ;
#3 = SURFACE_STYLE_FILL_AREA ( #194 ) ;
#4 = MANIFOLD_SOLID_BREP ( 'ºÐÇÒ2[2]', #150 ) ;
#5 = FILL_AREA_STYLE_COLOUR ( '', #131 ) ;
#6 = FILL_AREA_STYLE ('',( #5 ) ) ;
#7 = FACE_OUTER_BOUND ( 'NONE', #149, .T. ) ;
#8 = EDGE_LOOP ( 'NONE', ( #187 ) ) ;
#9 = SURFACE_SIDE_STYLE ('',( #169 ) ) ;
#10 = UNCERTAINTY_MEASURE_WITH_UNIT (LENGTH_MEASURE( 1.000000000000000082E-05 ), #201, 'distance_accuracy_value', 'NONE');
#11 =( GEOMETRIC_REPRESENTATION_CONTEXT ( 3 ) GLOBAL_UNCERTAINTY_ASSIGNED_CONTEXT ( ( #54 ) ) GLOBAL_UNIT_ASSIGNED_CONTEXT ( ( #13, #12, #153 ) ) REPRESENTATION_CONTEXT ( 'NONE', 'WORKASPACE' ) );
#12 =( NAMED_UNIT ( * ) PLANE_ANGLE_UNIT ( ) SI_UNIT ( $, .RADIAN. ) );
#13 =( LENGTH_UNIT ( ) NAMED_UNIT ( * ) SI_UNIT ( .MILLI., .METRE. ) );
#14 = EDGE_LOOP ( 'NONE', ( #57 ) ) ;
#15 =( GEOMETRIC_REPRESENTATION_CONTEXT ( 3 ) GLOBAL_UNCERTAINTY_ASSIGNED_CONTEXT ( ( #21 ) ) GLOBAL_UNIT_ASSIGNED_CONTEXT ( ( #48, #80, #137 ) ) REPRESENTATION_CONTEXT ( 'NONE', 'WORKASPACE' ) );
#16 = PRODUCT_DEFINITION_SHAPE ( 'NONE', 'NONE',  #82 ) ;
#17 = CARTESIAN_POINT ( 'NONE',  ( -2.173748068486551444E-16, 0.0000000000000000000, -2.840000000000022951 ) ) ;
#18 =( NAMED_UNIT ( * ) PLANE_ANGLE_UNIT ( ) SI_UNIT ( $, .RADIAN. ) );
#19 = PRESENTATION_STYLE_ASSIGNMENT (( #198 ) ) ;
#20 = VERTEX_POINT ( 'NONE', #147 ) ;
#21 = UNCERTAINTY_MEASURE_WITH_UNIT (LENGTH_MEASURE( 1.000000000000000082E-05 ), #48, 'distance_accuracy_value', 'NONE');
#22 = FILL_AREA_STYLE ('',( #124 ) ) ;
#23 = CARTESIAN_POINT ( 'NONE',  ( -2.173748068486551444E-16, 0.0000000000000000000, 0.0000000000000000000 ) ) ;
#24 = DIRECTION ( 'NONE',  ( 0.0000000000000000000, 0.0000000000000000000, 1.000000000000000000 ) ) ;
#25 = VERTEX_POINT ( 'NONE', #17 ) ;
#26 = MECHANICAL_DESIGN_GEOMETRIC_PRESENTATION_REPRESENTATION (  '', ( #49 ), #11 ) ;
#27 = DIRECTION ( 'NONE',  ( -1.000000000000000000, -0.0000000000000000000, -0.0000000000000000000 ) ) ;
#28 = DIRECTION ( 'NONE',  ( 1.000000000000000000, 0.0000000000000000000, 0.0000000000000000000 ) ) ;
#29 = CARTESIAN_POINT ( 'NONE',  ( 39.99999999999999289, 0.0000000000000000000, 0.0000000000000000000 ) ) ;
#30 = CONICAL_SURFACE ( 'NONE', #107, 2.840000000000022951, 0.7853981633974482790 ) ;
#31 = DIRECTION ( 'NONE',  ( 0.0000000000000000000, 0.0000000000000000000, 1.000000000000000000 ) ) ;
#32 = MECHANICAL_DESIGN_GEOMETRIC_PRESENTATION_REPRESENTATION (  '', ( #53 ), #15 ) ;
#33 = MANIFOLD_SOLID_BREP ( 'ºÐÇÒ2[1]', #163 ) ;
#34 = FACE_OUTER_BOUND ( 'NONE', #114, .T. ) ;
#35 = ADVANCED_FACE ( 'NONE', ( #75 ), #104, .T. ) ;
#36 = FACE_OUTER_BOUND ( 'NONE', #58, .T. ) ;
#37 = CYLINDRICAL_SURFACE ( 'NONE', #200, 3.550000000000006484 ) ;
#38 = PRESENTATION_LAYER_ASSIGNMENT (  '', '', ( #49 ) ) ;
#39 = FACE_BOUND ( 'NONE', #178, .T. ) ;
#40 = SURFACE_STYLE_FILL_AREA ( #6 ) ;
#41 = VERTEX_POINT ( 'NONE', #196 ) ;
#42 =( NAMED_UNIT ( * ) PLANE_ANGLE_UNIT ( ) SI_UNIT ( $, .RADIAN. ) );
#43 = DIRECTION ( 'NONE',  ( 0.0000000000000000000, 0.0000000000000000000, -1.000000000000000000 ) ) ;
#44 = VERTEX_POINT ( 'NONE', #68 ) ;
#45 = PRESENTATION_LAYER_ASSIGNMENT (  '', '', ( #53 ) ) ;
#46 = SURFACE_SIDE_STYLE ('',( #181 ) ) ;
#47 = CARTESIAN_POINT ( 'NONE',  ( -2.173748068486551444E-16, 3.549999999999999378, 0.0000000000000000000 ) ) ;
#48 =( LENGTH_UNIT ( ) NAMED_UNIT ( * ) SI_UNIT ( .MILLI., .METRE. ) );
#49 = STYLED_ITEM ( 'NONE', ( #94 ), #33 ) ;
#50 = COLOUR_RGB ( '',0.7921568627450980005, 0.8196078431372548767, 0.9333333333333333481 ) ;
#51 = CARTESIAN_POINT ( 'NONE',  ( 0.0000000000000000000, 0.0000000000000000000, 0.0000000000000000000 ) ) ;
#52 = ADVANCED_FACE ( 'NONE', ( #7 ), #85, .T. ) ;
#53 = STYLED_ITEM ( 'NONE', ( #165 ), #133 ) ;
#54 = UNCERTAINTY_MEASURE_WITH_UNIT (LENGTH_MEASURE( 1.000000000000000082E-05 ), #13, 'distance_accuracy_value', 'NONE');
#55 = DIRECTION ( 'NONE',  ( -1.000000000000000000, -0.0000000000000000000, -0.0000000000000000000 ) ) ;
#56 = UNCERTAINTY_MEASURE_WITH_UNIT (LENGTH_MEASURE( 1.000000000000000082E-05 ), #182, 'distance_accuracy_value', 'NONE');
#57 = ORIENTED_EDGE ( 'NONE', *, *, #95, .T. ) ;
#58 = EDGE_LOOP ( 'NONE', ( #96 ) ) ;
#59 = PRESENTATION_STYLE_ASSIGNMENT (( #106 ) ) ;
#60 = PRODUCT_RELATED_PRODUCT_CATEGORY ( 'part', '', ( #99 ) ) ;
#61 = APPLICATION_CONTEXT ( 'automotive_design' ) ;
#62 = DIRECTION ( 'NONE',  ( 0.0000000000000000000, 0.0000000000000000000, -1.000000000000000000 ) ) ;
#63 =( GEOMETRIC_REPRESENTATION_CONTEXT ( 3 ) GLOBAL_UNCERTAINTY_ASSIGNED_CONTEXT ( ( #10 ) ) GLOBAL_UNIT_ASSIGNED_CONTEXT ( ( #201, #148, #164 ) ) REPRESENTATION_CONTEXT ( 'NONE', 'WORKASPACE' ) );
#64 = EDGE_CURVE ( 'NONE', #25, #25, #205, .T. ) ;
#65 = ORIENTED_EDGE ( 'NONE', *, *, #127, .F. ) ;
#66 = DIRECTION ( 'NONE',  ( 1.000000000000000000, 0.0000000000000000000, 0.0000000000000000000 ) ) ;
#67 = AXIS2_PLACEMENT_3D ( 'NONE', #29, #125, #189 ) ;
#68 = CARTESIAN_POINT ( 'NONE',  ( 39.99999999999999289, 0.0000000000000000000, -3.550000000000006484 ) ) ;
#69 = SURFACE_STYLE_FILL_AREA ( #160 ) ;
#70 = PRODUCT_DEFINITION_FORMATION_WITH_SPECIFIED_SOURCE ( 'ANY', '', #99, .NOT_KNOWN. ) ;
#71 = COLOUR_RGB ( '',1.000000000000000000, 1.000000000000000000, 0.0000000000000000000 ) ;
#72 = FACE_OUTER_BOUND ( 'NONE', #184, .T. ) ;
#73 = MECHANICAL_DESIGN_GEOMETRIC_PRESENTATION_REPRESENTATION (  '', ( #136 ), #63 ) ;
#74 = EDGE_LOOP ( 'NONE', ( #185 ) ) ;
#75 = FACE_OUTER_BOUND ( 'NONE', #8, .T. ) ;
#76 = DIRECTION ( 'NONE',  ( 0.0000000000000000000, 0.0000000000000000000, -1.000000000000000000 ) ) ;
#77 = DIRECTION ( 'NONE',  ( 0.0000000000000000000, 0.0000000000000000000, -1.000000000000000000 ) ) ;
#78 = AXIS2_PLACEMENT_3D ( 'NONE', #141, #103, #142 ) ;
#79 =( LENGTH_UNIT ( ) NAMED_UNIT ( * ) SI_UNIT ( .MILLI., .METRE. ) );
#80 =( NAMED_UNIT ( * ) PLANE_ANGLE_UNIT ( ) SI_UNIT ( $, .RADIAN. ) );
#81 = SURFACE_STYLE_USAGE ( .BOTH. , #9 ) ;
#82 = PRODUCT_DEFINITION ( 'UNKNOWN', '', #70, #139 ) ;
#83 = CARTESIAN_POINT ( 'NONE',  ( 0.0000000000000000000, 0.0000000000000000000, 0.0000000000000000000 ) ) ;
#84 = PRESENTATION_LAYER_ASSIGNMENT (  '', '', ( #136 ) ) ;
#85 = CONICAL_SURFACE ( 'NONE', #152, 2414.213562373075092, 1.178097245096169532 ) ;
#86 = VERTEX_POINT ( 'NONE', #177 ) ;
#87 = CARTESIAN_POINT ( 'NONE',  ( 39.99999999999999289, 0.0000000000000000000, 0.0000000000000000000 ) ) ;
#88 = EDGE_CURVE ( 'NONE', #20, #20, #126, .T. ) ;
#89 =( LENGTH_UNIT ( ) NAMED_UNIT ( * ) SI_UNIT ( .MILLI., .METRE. ) );
#90 = AXIS2_PLACEMENT_3D ( 'NONE', #83, #24, #191 ) ;
#91 = SURFACE_SIDE_STYLE ('',( #3 ) ) ;
#92 = DIRECTION ( 'NONE',  ( 1.000000000000000000, 0.0000000000000000000, 0.0000000000000000000 ) ) ;
#93 = CARTESIAN_POINT ( 'NONE',  ( 0.0000000000000000000, 0.0000000000000000000, 0.0000000000000000000 ) ) ;
#94 = PRESENTATION_STYLE_ASSIGNMENT (( #118 ) ) ;
#95 = EDGE_CURVE ( 'NONE', #86, #86, #2, .T. ) ;
#96 = ORIENTED_EDGE ( 'NONE', *, *, #88, .F. ) ;
#97 = DIRECTION ( 'NONE',  ( 1.000000000000000000, 0.0000000000000000000, 0.0000000000000000000 ) ) ;
#98 = AXIS2_PLACEMENT_3D ( 'NONE', #87, #97, #43 ) ;
#99 = PRODUCT ( '03-1677', '03-1677', '', ( #100 ) ) ;
#100 = PRODUCT_CONTEXT ( 'NONE', #151, 'mechanical' ) ;
#101 = DIRECTION ( 'NONE',  ( 1.000000000000000000, 0.0000000000000000000, 0.0000000000000000000 ) ) ;
#102 = ADVANCED_FACE ( 'NONE', ( #208, #39 ), #30, .T. ) ;
#103 = DIRECTION ( 'NONE',  ( 1.000000000000000000, 0.0000000000000000000, 0.0000000000000000000 ) ) ;
#104 = PLANE ( 'NONE',  #195 ) ;
#105 = CARTESIAN_POINT ( 'NONE',  ( 107.5295418535754948, 0.0000000000000000000, 0.0000000000000000000 ) ) ;
#106 = SURFACE_STYLE_USAGE ( .BOTH. , #46 ) ;
#107 = AXIS2_PLACEMENT_3D ( 'NONE', #23, #101, #76 ) ;
#108 =( NAMED_UNIT ( * ) PLANE_ANGLE_UNIT ( ) SI_UNIT ( $, .RADIAN. ) );
#109 = UNCERTAINTY_MEASURE_WITH_UNIT (LENGTH_MEASURE( 1.000000000000000082E-05 ), #79, 'distance_accuracy_value', 'NONE');
#110 = COLOUR_RGB ( '',0.7921568627450980005, 0.8196078431372548767, 0.9333333333333333481 ) ;
#111 = CYLINDRICAL_SURFACE ( 'NONE', #166, 3.550000000000006484 ) ;
#112 = DIRECTION ( 'NONE',  ( 0.0000000000000000000, 0.0000000000000000000, -1.000000000000000000 ) ) ;
#113 = DIRECTION ( 'NONE',  ( 0.0000000000000000000, 0.0000000000000000000, -1.000000000000000000 ) ) ;
#114 = EDGE_LOOP ( 'NONE', ( #207 ) ) ;
#115 = EDGE_CURVE ( 'NONE', #44, #44, #130, .T. ) ;
#116 = COLOUR_RGB ( '',0.7921568627450980005, 0.8196078431372548767, 0.9333333333333333481 ) ;
#117 = ADVANCED_FACE ( 'NONE', ( #138 ), #157, .F. ) ;
#118 = SURFACE_STYLE_USAGE ( .BOTH. , #91 ) ;
#119 = AXIS2_PLACEMENT_3D ( 'NONE', #105, #55, #31 ) ;
#120 = CARTESIAN_POINT ( 'NONE',  ( 39.99999999999999289, 0.0000000000000000000, 0.0000000000000000000 ) ) ;
#121 = UNCERTAINTY_MEASURE_WITH_UNIT (LENGTH_MEASURE( 1.000000000000000082E-05 ), #89, 'distance_accuracy_value', 'NONE');
#122 = APPLICATION_PROTOCOL_DEFINITION ( 'draft international standard', 'automotive_design', 1998, #61 ) ;
#123 =( GEOMETRIC_REPRESENTATION_CONTEXT ( 3 ) GLOBAL_UNCERTAINTY_ASSIGNED_CONTEXT ( ( #109 ) ) GLOBAL_UNIT_ASSIGNED_CONTEXT ( ( #79, #42, #135 ) ) REPRESENTATION_CONTEXT ( 'NONE', 'WORKASPACE' ) );
#124 = FILL_AREA_STYLE_COLOUR ( '', #116 ) ;
#125 = DIRECTION ( 'NONE',  ( 1.000000000000000000, 0.0000000000000000000, 0.0000000000000000000 ) ) ;
#126 = CIRCLE ( 'NONE', #129, 3.550000000000006484 ) ;
#127 = EDGE_CURVE ( 'NONE', #41, #41, #176, .T. ) ;
#128 = FILL_AREA_STYLE ('',( #154 ) ) ;
#129 = AXIS2_PLACEMENT_3D ( 'NONE', #120, #28, #62 ) ;
#130 = CIRCLE ( 'NONE', #98, 3.550000000000006484 ) ;
#131 = COLOUR_RGB ( '',1.000000000000000000, 1.000000000000000000, 0.0000000000000000000 ) ;
#132 = DIRECTION ( 'NONE',  ( -1.000000000000000000, -0.0000000000000000000, -0.0000000000000000000 ) ) ;
#133 = ADVANCED_FACE ( 'NONE', ( #173, #146 ), #37, .T. ) ;
#134 = MECHANICAL_DESIGN_GEOMETRIC_PRESENTATION_REPRESENTATION (  '', ( #156 ), #123 ) ;
#135 =( NAMED_UNIT ( * ) SI_UNIT ( $, .STERADIAN. ) SOLID_ANGLE_UNIT ( ) );
#136 = STYLED_ITEM ( 'NONE', ( #19 ), #4 ) ;
#137 =( NAMED_UNIT ( * ) SI_UNIT ( $, .STERADIAN. ) SOLID_ANGLE_UNIT ( ) );
#138 = FACE_OUTER_BOUND ( 'NONE', #167, .T. ) ;
#139 = PRODUCT_DEFINITION_CONTEXT ( 'detailed design', #61, 'design' ) ;
#140 = AXIS2_PLACEMENT_3D ( 'NONE', #199, #27, #77 ) ;
#141 = CARTESIAN_POINT ( 'NONE',  ( 0.7099999999999830891, 0.0000000000000000000, 0.0000000000000000000 ) ) ;
#142 = DIRECTION ( 'NONE',  ( 0.0000000000000000000, 0.0000000000000000000, -1.000000000000000000 ) ) ;
#143 = ORIENTED_EDGE ( 'NONE', *, *, #95, .F. ) ;
#144 = FILL_AREA_STYLE_COLOUR ( '', #110 ) ;
#145 = PRESENTATION_LAYER_ASSIGNMENT (  '', '', ( #156 ) ) ;
#146 = FACE_OUTER_BOUND ( 'NONE', #14, .T. ) ;
#147 = CARTESIAN_POINT ( 'NONE',  ( 39.99999999999999289, 0.0000000000000000000, -3.550000000000006484 ) ) ;
#148 =( NAMED_UNIT ( * ) PLANE_ANGLE_UNIT ( ) SI_UNIT ( $, .RADIAN. ) );
#149 = EDGE_LOOP ( 'NONE', ( #143 ) ) ;
#150 = CLOSED_SHELL ( 'NONE', ( #117, #133, #52 ) ) ;
#151 = APPLICATION_CONTEXT ( 'automotive_design' ) ;
#152 = AXIS2_PLACEMENT_3D ( 'NONE', #170, #132, #155 ) ;
#153 =( NAMED_UNIT ( * ) SI_UNIT ( $, .STERADIAN. ) SOLID_ANGLE_UNIT ( ) );
#154 = FILL_AREA_STYLE_COLOUR ( '', #71 ) ;
#155 = DIRECTION ( 'NONE',  ( 0.0000000000000000000, 0.0000000000000000000, 1.000000000000000000 ) ) ;
#156 = STYLED_ITEM ( 'NONE', ( #59 ), #213 ) ;
#157 = PLANE ( 'NONE',  #67 ) ;
#158 = APPLICATION_PROTOCOL_DEFINITION ( 'draft international standard', 'automotive_design', 1998, #151 ) ;
#159 = SHAPE_DEFINITION_REPRESENTATION ( #16, #213 ) ;
#160 = FILL_AREA_STYLE ('',( #144 ) ) ;
#161 = ORIENTED_EDGE ( 'NONE', *, *, #127, .T. ) ;
#162 =( GEOMETRIC_REPRESENTATION_CONTEXT ( 3 ) GLOBAL_UNCERTAINTY_ASSIGNED_CONTEXT ( ( #121 ) ) GLOBAL_UNIT_ASSIGNED_CONTEXT ( ( #89, #108, #172 ) ) REPRESENTATION_CONTEXT ( 'NONE', 'WORKASPACE' ) );
#163 = CLOSED_SHELL ( 'NONE', ( #197, #183, #102, #35 ) ) ;
#164 =( NAMED_UNIT ( * ) SI_UNIT ( $, .STERADIAN. ) SOLID_ANGLE_UNIT ( ) );
#165 = PRESENTATION_STYLE_ASSIGNMENT (( #81 ) ) ;
#166 = AXIS2_PLACEMENT_3D ( 'NONE', #51, #1, #206 ) ;
#167 = EDGE_LOOP ( 'NONE', ( #193 ) ) ;
#168 = SURFACE_STYLE_USAGE ( .BOTH. , #210 ) ;
#169 = SURFACE_STYLE_FILL_AREA ( #128 ) ;
#170 = CARTESIAN_POINT ( 'NONE',  ( -891.0000000000000000, 0.0000000000000000000, 0.0000000000000000000 ) ) ;
#171 = SURFACE_SIDE_STYLE ('',( #69 ) ) ;
#172 =( NAMED_UNIT ( * ) SI_UNIT ( $, .STERADIAN. ) SOLID_ANGLE_UNIT ( ) );
#173 = FACE_OUTER_BOUND ( 'NONE', #74, .T. ) ;
#174 = MECHANICAL_DESIGN_GEOMETRIC_PRESENTATION_REPRESENTATION (  '', ( #204 ), #162 ) ;
#175 = DIRECTION ( 'NONE',  ( -1.000000000000000000, -0.0000000000000000000, -0.0000000000000000000 ) ) ;
#176 = CIRCLE ( 'NONE', #78, 3.550000000000006484 ) ;
#177 = CARTESIAN_POINT ( 'NONE',  ( 107.5295418535754948, 0.0000000000000000000, 3.550000000000012701 ) ) ;
#178 = EDGE_LOOP ( 'NONE', ( #203 ) ) ;
#179 =( GEOMETRIC_REPRESENTATION_CONTEXT ( 3 ) GLOBAL_UNCERTAINTY_ASSIGNED_CONTEXT ( ( #56 ) ) GLOBAL_UNIT_ASSIGNED_CONTEXT ( ( #182, #18, #209 ) ) REPRESENTATION_CONTEXT ( 'NONE', 'WORKASPACE' ) );
#180 = FILL_AREA_STYLE_COLOUR ( '', #50 ) ;
#181 = SURFACE_STYLE_FILL_AREA ( #22 ) ;
#182 =( LENGTH_UNIT ( ) NAMED_UNIT ( * ) SI_UNIT ( .MILLI., .METRE. ) );
#183 = ADVANCED_FACE ( 'NONE', ( #34 ), #212, .F. ) ;
#184 = EDGE_LOOP ( 'NONE', ( #161 ) ) ;
#185 = ORIENTED_EDGE ( 'NONE', *, *, #115, .T. ) ;
#186 = PRESENTATION_LAYER_ASSIGNMENT (  '', '', ( #204 ) ) ;
#187 = ORIENTED_EDGE ( 'NONE', *, *, #88, .T. ) ;
#188 = DIRECTION ( 'NONE',  ( 0.0000000000000000000, 0.0000000000000000000, 1.000000000000000000 ) ) ;
#189 = DIRECTION ( 'NONE',  ( 0.0000000000000000000, 0.0000000000000000000, -1.000000000000000000 ) ) ;
#190 = AXIS2_PLACEMENT_3D ( 'NONE', #47, #92, #112 ) ;
#191 = DIRECTION ( 'NONE',  ( 1.000000000000000000, 0.0000000000000000000, 0.0000000000000000000 ) ) ;
#192 = EDGE_LOOP ( 'NONE', ( #65 ) ) ;
#193 = ORIENTED_EDGE ( 'NONE', *, *, #115, .F. ) ;
#194 = FILL_AREA_STYLE ('',( #180 ) ) ;
#195 = AXIS2_PLACEMENT_3D ( 'NONE', #211, #66, #113 ) ;
#196 = CARTESIAN_POINT ( 'NONE',  ( 0.7099999999999830891, 0.0000000000000000000, -3.550000000000006484 ) ) ;
#197 = ADVANCED_FACE ( 'NONE', ( #72, #36 ), #111, .T. ) ;
#198 = SURFACE_STYLE_USAGE ( .BOTH. , #171 ) ;
#199 = CARTESIAN_POINT ( 'NONE',  ( -2.173748068486551444E-16, 0.0000000000000000000, 0.0000000000000000000 ) ) ;
#200 = AXIS2_PLACEMENT_3D ( 'NONE', #93, #175, #188 ) ;
#201 =( LENGTH_UNIT ( ) NAMED_UNIT ( * ) SI_UNIT ( .MILLI., .METRE. ) );
#202 = PRESENTATION_STYLE_ASSIGNMENT (( #168 ) ) ;
#203 = ORIENTED_EDGE ( 'NONE', *, *, #64, .F. ) ;
#204 = STYLED_ITEM ( 'NONE', ( #202 ), #52 ) ;
#205 = CIRCLE ( 'NONE', #140, 2.840000000000022951 ) ;
#206 = DIRECTION ( 'NONE',  ( 0.0000000000000000000, 0.0000000000000000000, 1.000000000000000000 ) ) ;
#207 = ORIENTED_EDGE ( 'NONE', *, *, #64, .T. ) ;
#208 = FACE_OUTER_BOUND ( 'NONE', #192, .T. ) ;
#209 =( NAMED_UNIT ( * ) SI_UNIT ( $, .STERADIAN. ) SOLID_ANGLE_UNIT ( ) );
#210 = SURFACE_SIDE_STYLE ('',( #40 ) ) ;
#211 = CARTESIAN_POINT ( 'NONE',  ( 39.99999999999999289, 0.0000000000000000000, 0.0000000000000000000 ) ) ;
#212 = PLANE ( 'NONE',  #190 ) ;
#213 = ADVANCED_BREP_SHAPE_REPRESENTATION ( '03-1677', ( #33, #4, #90 ), #179 ) ;
ENDSEC;
END-ISO-10303-21;
