ISO-10303-21;
HEADER;
FILE_DESCRIPTION (( 'STEP AP214' ),
    '1' );
FILE_NAME ('03-1680.STEP',
    '2021-10-01T05:37:15',
    ( 'USER' ),
    ( '' ),
    'SwSTEP 2.0',
    'SolidWorks 2018',
    '' );
FILE_SCHEMA (( 'AUTOMOTIVE_DESIGN' ));
ENDSEC;

DATA;
#1 = DIRECTION ( 'NONE',  ( 0.0000000000000000000, 0.0000000000000000000, 1.000000000000000000 ) ) ;
#2 = VERTEX_POINT ( 'NONE', #21 ) ;
#3 = PRESENTATION_STYLE_ASSIGNMENT (( #63 ) ) ;
#4 = FACE_OUTER_BOUND ( 'NONE', #15, .T. ) ;
#5 = ADVANCED_FACE ( 'NONE', ( #136, #18 ), #61, .T. ) ;
#6 = DIRECTION ( 'NONE',  ( 0.0000000000000000000, 0.0000000000000000000, 1.000000000000000000 ) ) ;
#7 = DIRECTION ( 'NONE',  ( 0.0000000000000000000, 0.0000000000000000000, 1.000000000000000000 ) ) ;
#8 = SURFACE_STYLE_USAGE ( .BOTH. , #36 ) ;
#9 = AXIS2_PLACEMENT_3D ( 'NONE', #200, #177, #199 ) ;
#10 = VERTEX_POINT ( 'NONE', #133 ) ;
#11 =( GEOMETRIC_REPRESENTATION_CONTEXT ( 3 ) GLOBAL_UNCERTAINTY_ASSIGNED_CONTEXT ( ( #69 ) ) GLOBAL_UNIT_ASSIGNED_CONTEXT ( ( #161, #24, #151 ) ) REPRESENTATION_CONTEXT ( 'NONE', 'WORKASPACE' ) );
#12 = MECHANICAL_DESIGN_GEOMETRIC_PRESENTATION_REPRESENTATION (  '', ( #65 ), #29 ) ;
#13 = FACE_OUTER_BOUND ( 'NONE', #50, .T. ) ;
#14 = DIRECTION ( 'NONE',  ( 1.000000000000000000, 0.0000000000000000000, 0.0000000000000000000 ) ) ;
#15 = EDGE_LOOP ( 'NONE', ( #184 ) ) ;
#16 = PRODUCT_DEFINITION ( 'UNKNOWN', '', #128, #75 ) ;
#17 = APPLICATION_PROTOCOL_DEFINITION ( 'draft international standard', 'automotive_design', 1998, #67 ) ;
#18 = FACE_BOUND ( 'NONE', #175, .T. ) ;
#19 = FILL_AREA_STYLE ('',( #48 ) ) ;
#20 =( NAMED_UNIT ( * ) PLANE_ANGLE_UNIT ( ) SI_UNIT ( $, .RADIAN. ) );
#21 = CARTESIAN_POINT ( 'NONE',  ( 107.4674098192195260, 0.0000000000000000000, 3.700000000000013500 ) ) ;
#22 = SURFACE_STYLE_FILL_AREA ( #89 ) ;
#23 = AXIS2_PLACEMENT_3D ( 'NONE', #106, #117, #192 ) ;
#24 =( NAMED_UNIT ( * ) PLANE_ANGLE_UNIT ( ) SI_UNIT ( $, .RADIAN. ) );
#25 = UNCERTAINTY_MEASURE_WITH_UNIT (LENGTH_MEASURE( 1.000000000000000082E-05 ), #211, 'distance_accuracy_value', 'NONE');
#26 = CARTESIAN_POINT ( 'NONE',  ( 39.99999999999999289, 0.0000000000000000000, 0.0000000000000000000 ) ) ;
#27 =( NAMED_UNIT ( * ) SI_UNIT ( $, .STERADIAN. ) SOLID_ANGLE_UNIT ( ) );
#28 = EDGE_LOOP ( 'NONE', ( #88 ) ) ;
#29 =( GEOMETRIC_REPRESENTATION_CONTEXT ( 3 ) GLOBAL_UNCERTAINTY_ASSIGNED_CONTEXT ( ( #204 ) ) GLOBAL_UNIT_ASSIGNED_CONTEXT ( ( #163, #148, #39 ) ) REPRESENTATION_CONTEXT ( 'NONE', 'WORKASPACE' ) );
#30 = CARTESIAN_POINT ( 'NONE',  ( -891.0000000000000000, 0.0000000000000000000, 0.0000000000000000000 ) ) ;
#31 =( LENGTH_UNIT ( ) NAMED_UNIT ( * ) SI_UNIT ( .MILLI., .METRE. ) );
#32 = SURFACE_STYLE_FILL_AREA ( #140 ) ;
#33 =( LENGTH_UNIT ( ) NAMED_UNIT ( * ) SI_UNIT ( .MILLI., .METRE. ) );
#34 = PRODUCT_CONTEXT ( 'NONE', #67, 'mechanical' ) ;
#35 = AXIS2_PLACEMENT_3D ( 'NONE', #37, #93, #157 ) ;
#36 = SURFACE_SIDE_STYLE ('',( #59 ) ) ;
#37 = CARTESIAN_POINT ( 'NONE',  ( -2.265596578422603594E-16, 0.0000000000000000000, 0.0000000000000000000 ) ) ;
#38 = MECHANICAL_DESIGN_GEOMETRIC_PRESENTATION_REPRESENTATION (  '', ( #162 ), #197 ) ;
#39 =( NAMED_UNIT ( * ) SI_UNIT ( $, .STERADIAN. ) SOLID_ANGLE_UNIT ( ) );
#40 = EDGE_LOOP ( 'NONE', ( #147 ) ) ;
#41 = ORIENTED_EDGE ( 'NONE', *, *, #121, .F. ) ;
#42 = PRESENTATION_LAYER_ASSIGNMENT (  '', '', ( #53 ) ) ;
#43 = CIRCLE ( 'NONE', #158, 3.700000000000006839 ) ;
#44 = EDGE_LOOP ( 'NONE', ( #41 ) ) ;
#45 = DIRECTION ( 'NONE',  ( 1.000000000000000000, 0.0000000000000000000, 0.0000000000000000000 ) ) ;
#46 =( GEOMETRIC_REPRESENTATION_CONTEXT ( 3 ) GLOBAL_UNCERTAINTY_ASSIGNED_CONTEXT ( ( #25 ) ) GLOBAL_UNIT_ASSIGNED_CONTEXT ( ( #211, #165, #114 ) ) REPRESENTATION_CONTEXT ( 'NONE', 'WORKASPACE' ) );
#47 = FACE_OUTER_BOUND ( 'NONE', #174, .T. ) ;
#48 = FILL_AREA_STYLE_COLOUR ( '', #198 ) ;
#49 = COLOUR_RGB ( '',0.7921568627450980005, 0.8196078431372548767, 0.9333333333333333481 ) ;
#50 = EDGE_LOOP ( 'NONE', ( #124 ) ) ;
#51 = AXIS2_PLACEMENT_3D ( 'NONE', #115, #14, #212 ) ;
#52 = CARTESIAN_POINT ( 'NONE',  ( 39.99999999999999289, 0.0000000000000000000, -3.700000000000006839 ) ) ;
#53 = STYLED_ITEM ( 'NONE', ( #3 ), #172 ) ;
#54 = SHAPE_DEFINITION_REPRESENTATION ( #169, #172 ) ;
#55 = FACE_OUTER_BOUND ( 'NONE', #28, .T. ) ;
#56 = PLANE ( 'NONE',  #51 ) ;
#57 = MANIFOLD_SOLID_BREP ( 'ºÐÇÒ2[1]', #66 ) ;
#58 = EDGE_LOOP ( 'NONE', ( #80 ) ) ;
#59 = SURFACE_STYLE_FILL_AREA ( #19 ) ;
#60 = SURFACE_SIDE_STYLE ('',( #101 ) ) ;
#61 = CONICAL_SURFACE ( 'NONE', #155, 2.959999999999976428, 0.7853981633974488341 ) ;
#62 = ADVANCED_FACE ( 'NONE', ( #153 ), #152, .T. ) ;
#63 = SURFACE_STYLE_USAGE ( .BOTH. , #60 ) ;
#64 = FILL_AREA_STYLE_COLOUR ( '', #144 ) ;
#65 = STYLED_ITEM ( 'NONE', ( #190 ), #154 ) ;
#66 = CLOSED_SHELL ( 'NONE', ( #86, #166, #5, #207 ) ) ;
#67 = APPLICATION_CONTEXT ( 'automotive_design' ) ;
#68 = CIRCLE ( 'NONE', #35, 2.959999999999976428 ) ;
#69 = UNCERTAINTY_MEASURE_WITH_UNIT (LENGTH_MEASURE( 1.000000000000000082E-05 ), #161, 'distance_accuracy_value', 'NONE');
#70 = PRESENTATION_LAYER_ASSIGNMENT (  '', '', ( #65 ) ) ;
#71 = APPLICATION_PROTOCOL_DEFINITION ( 'draft international standard', 'automotive_design', 1998, #146 ) ;
#72 = MANIFOLD_SOLID_BREP ( 'ºÐÇÒ2[2]', #167 ) ;
#73 = PRESENTATION_LAYER_ASSIGNMENT (  '', '', ( #195 ) ) ;
#74 = SURFACE_SIDE_STYLE ('',( #100 ) ) ;
#75 = PRODUCT_DEFINITION_CONTEXT ( 'detailed design', #146, 'design' ) ;
#76 =( NAMED_UNIT ( * ) PLANE_ANGLE_UNIT ( ) SI_UNIT ( $, .RADIAN. ) );
#77 = STYLED_ITEM ( 'NONE', ( #160 ), #72 ) ;
#78 = CARTESIAN_POINT ( 'NONE',  ( -2.265596578422603594E-16, 0.0000000000000000000, 0.0000000000000000000 ) ) ;
#79 = DIRECTION ( 'NONE',  ( 1.000000000000000000, 0.0000000000000000000, 0.0000000000000000000 ) ) ;
#80 = ORIENTED_EDGE ( 'NONE', *, *, #132, .T. ) ;
#81 = SURFACE_STYLE_USAGE ( .BOTH. , #92 ) ;
#82 = CARTESIAN_POINT ( 'NONE',  ( 0.7400000000000291900, 0.0000000000000000000, -3.700000000000006839 ) ) ;
#83 = PRESENTATION_STYLE_ASSIGNMENT (( #159 ) ) ;
#84 = PLANE ( 'NONE',  #137 ) ;
#85 = MECHANICAL_DESIGN_GEOMETRIC_PRESENTATION_REPRESENTATION (  '', ( #53 ), #139 ) ;
#86 = ADVANCED_FACE ( 'NONE', ( #55, #4 ), #180, .T. ) ;
#87 = DIRECTION ( 'NONE',  ( 0.0000000000000000000, 0.0000000000000000000, -1.000000000000000000 ) ) ;
#88 = ORIENTED_EDGE ( 'NONE', *, *, #121, .T. ) ;
#89 = FILL_AREA_STYLE ('',( #188 ) ) ;
#90 = DIRECTION ( 'NONE',  ( 0.0000000000000000000, 0.0000000000000000000, -1.000000000000000000 ) ) ;
#91 = MECHANICAL_DESIGN_GEOMETRIC_PRESENTATION_REPRESENTATION (  '', ( #195 ), #171 ) ;
#92 = SURFACE_SIDE_STYLE ('',( #22 ) ) ;
#93 = DIRECTION ( 'NONE',  ( -1.000000000000000000, -0.0000000000000000000, -0.0000000000000000000 ) ) ;
#94 = FILL_AREA_STYLE_COLOUR ( '', #118 ) ;
#95 = CARTESIAN_POINT ( 'NONE',  ( 0.7400000000000291900, 0.0000000000000000000, 0.0000000000000000000 ) ) ;
#96 = AXIS2_PLACEMENT_3D ( 'NONE', #95, #104, #202 ) ;
#97 = VERTEX_POINT ( 'NONE', #149 ) ;
#98 = PRODUCT_RELATED_PRODUCT_CATEGORY ( 'part', '', ( #213 ) ) ;
#99 = CARTESIAN_POINT ( 'NONE',  ( 39.99999999999999289, 0.0000000000000000000, 0.0000000000000000000 ) ) ;
#100 = SURFACE_STYLE_FILL_AREA ( #179 ) ;
#101 = SURFACE_STYLE_FILL_AREA ( #189 ) ;
#102 = EDGE_CURVE ( 'NONE', #2, #2, #110, .T. ) ;
#103 = FACE_OUTER_BOUND ( 'NONE', #58, .T. ) ;
#104 = DIRECTION ( 'NONE',  ( 1.000000000000000000, 0.0000000000000000000, 0.0000000000000000000 ) ) ;
#105 = ADVANCED_FACE ( 'NONE', ( #47 ), #84, .F. ) ;
#106 = CARTESIAN_POINT ( 'NONE',  ( -2.265596578422603594E-16, 3.699999999999999734, 0.0000000000000000000 ) ) ;
#107 = FACE_OUTER_BOUND ( 'NONE', #170, .T. ) ;
#108 =( NAMED_UNIT ( * ) SI_UNIT ( $, .STERADIAN. ) SOLID_ANGLE_UNIT ( ) );
#109 = VERTEX_POINT ( 'NONE', #52 ) ;
#110 = CIRCLE ( 'NONE', #205, 3.700000000000013500 ) ;
#111 = SURFACE_STYLE_USAGE ( .BOTH. , #74 ) ;
#112 = ORIENTED_EDGE ( 'NONE', *, *, #141, .F. ) ;
#113 = EDGE_CURVE ( 'NONE', #10, #10, #43, .T. ) ;
#114 =( NAMED_UNIT ( * ) SI_UNIT ( $, .STERADIAN. ) SOLID_ANGLE_UNIT ( ) );
#115 = CARTESIAN_POINT ( 'NONE',  ( 39.99999999999999289, 0.0000000000000000000, 0.0000000000000000000 ) ) ;
#116 = UNCERTAINTY_MEASURE_WITH_UNIT (LENGTH_MEASURE( 1.000000000000000082E-05 ), #33, 'distance_accuracy_value', 'NONE');
#117 = DIRECTION ( 'NONE',  ( 1.000000000000000000, 0.0000000000000000000, 0.0000000000000000000 ) ) ;
#118 = COLOUR_RGB ( '',0.7921568627450980005, 0.8196078431372548767, 0.9333333333333333481 ) ;
#119 = CARTESIAN_POINT ( 'NONE',  ( 0.0000000000000000000, 0.0000000000000000000, 0.0000000000000000000 ) ) ;
#120 = ORIENTED_EDGE ( 'NONE', *, *, #113, .T. ) ;
#121 = EDGE_CURVE ( 'NONE', #156, #156, #130, .T. ) ;
#122 = FACE_OUTER_BOUND ( 'NONE', #201, .T. ) ;
#123 = AXIS2_PLACEMENT_3D ( 'NONE', #30, #127, #1 ) ;
#124 = ORIENTED_EDGE ( 'NONE', *, *, #141, .T. ) ;
#125 =( LENGTH_UNIT ( ) NAMED_UNIT ( * ) SI_UNIT ( .MILLI., .METRE. ) );
#126 = AXIS2_PLACEMENT_3D ( 'NONE', #119, #183, #178 ) ;
#127 = DIRECTION ( 'NONE',  ( -1.000000000000000000, -0.0000000000000000000, -0.0000000000000000000 ) ) ;
#128 = PRODUCT_DEFINITION_FORMATION_WITH_SPECIFIED_SOURCE ( 'ANY', '', #213, .NOT_KNOWN. ) ;
#129 = FILL_AREA_STYLE_COLOUR ( '', #49 ) ;
#130 = CIRCLE ( 'NONE', #96, 3.700000000000006839 ) ;
#131 = SURFACE_SIDE_STYLE ('',( #32 ) ) ;
#132 = EDGE_CURVE ( 'NONE', #109, #109, #142, .T. ) ;
#133 = CARTESIAN_POINT ( 'NONE',  ( 39.99999999999999289, 0.0000000000000000000, -3.700000000000006839 ) ) ;
#134 = AXIS2_PLACEMENT_3D ( 'NONE', #164, #6, #203 ) ;
#135 =( NAMED_UNIT ( * ) SI_UNIT ( $, .STERADIAN. ) SOLID_ANGLE_UNIT ( ) );
#136 = FACE_OUTER_BOUND ( 'NONE', #44, .T. ) ;
#137 = AXIS2_PLACEMENT_3D ( 'NONE', #194, #138, #87 ) ;
#138 = DIRECTION ( 'NONE',  ( 1.000000000000000000, 0.0000000000000000000, 0.0000000000000000000 ) ) ;
#139 =( GEOMETRIC_REPRESENTATION_CONTEXT ( 3 ) GLOBAL_UNCERTAINTY_ASSIGNED_CONTEXT ( ( #182 ) ) GLOBAL_UNIT_ASSIGNED_CONTEXT ( ( #31, #20, #27 ) ) REPRESENTATION_CONTEXT ( 'NONE', 'WORKASPACE' ) );
#140 = FILL_AREA_STYLE ('',( #64 ) ) ;
#141 = EDGE_CURVE ( 'NONE', #97, #97, #68, .T. ) ;
#142 = CIRCLE ( 'NONE', #145, 3.700000000000006839 ) ;
#143 = DIRECTION ( 'NONE',  ( 0.0000000000000000000, 0.0000000000000000000, -1.000000000000000000 ) ) ;
#144 = COLOUR_RGB ( '',1.000000000000000000, 1.000000000000000000, 0.0000000000000000000 ) ;
#145 = AXIS2_PLACEMENT_3D ( 'NONE', #99, #79, #206 ) ;
#146 = APPLICATION_CONTEXT ( 'automotive_design' ) ;
#147 = ORIENTED_EDGE ( 'NONE', *, *, #102, .F. ) ;
#148 =( NAMED_UNIT ( * ) PLANE_ANGLE_UNIT ( ) SI_UNIT ( $, .RADIAN. ) );
#149 = CARTESIAN_POINT ( 'NONE',  ( -2.265596578422603594E-16, 0.0000000000000000000, -2.959999999999976428 ) ) ;
#150 = UNCERTAINTY_MEASURE_WITH_UNIT (LENGTH_MEASURE( 1.000000000000000082E-05 ), #125, 'distance_accuracy_value', 'NONE');
#151 =( NAMED_UNIT ( * ) SI_UNIT ( $, .STERADIAN. ) SOLID_ANGLE_UNIT ( ) );
#152 = CONICAL_SURFACE ( 'NONE', #123, 2414.213562373069180, 1.178097245096168644 ) ;
#153 = FACE_OUTER_BOUND ( 'NONE', #40, .T. ) ;
#154 = ADVANCED_FACE ( 'NONE', ( #103, #107 ), #185, .T. ) ;
#155 = AXIS2_PLACEMENT_3D ( 'NONE', #78, #187, #90 ) ;
#156 = VERTEX_POINT ( 'NONE', #82 ) ;
#157 = DIRECTION ( 'NONE',  ( 0.0000000000000000000, 0.0000000000000000000, -1.000000000000000000 ) ) ;
#158 = AXIS2_PLACEMENT_3D ( 'NONE', #26, #45, #143 ) ;
#159 = SURFACE_STYLE_USAGE ( .BOTH. , #131 ) ;
#160 = PRESENTATION_STYLE_ASSIGNMENT (( #8 ) ) ;
#161 =( LENGTH_UNIT ( ) NAMED_UNIT ( * ) SI_UNIT ( .MILLI., .METRE. ) );
#162 = STYLED_ITEM ( 'NONE', ( #196 ), #57 ) ;
#163 =( LENGTH_UNIT ( ) NAMED_UNIT ( * ) SI_UNIT ( .MILLI., .METRE. ) );
#164 = CARTESIAN_POINT ( 'NONE',  ( 0.0000000000000000000, 0.0000000000000000000, 0.0000000000000000000 ) ) ;
#165 =( NAMED_UNIT ( * ) PLANE_ANGLE_UNIT ( ) SI_UNIT ( $, .RADIAN. ) );
#166 = ADVANCED_FACE ( 'NONE', ( #13 ), #191, .F. ) ;
#167 = CLOSED_SHELL ( 'NONE', ( #105, #154, #62 ) ) ;
#168 = CARTESIAN_POINT ( 'NONE',  ( 107.4674098192195260, 0.0000000000000000000, 0.0000000000000000000 ) ) ;
#169 = PRODUCT_DEFINITION_SHAPE ( 'NONE', 'NONE',  #16 ) ;
#170 = EDGE_LOOP ( 'NONE', ( #208 ) ) ;
#171 =( GEOMETRIC_REPRESENTATION_CONTEXT ( 3 ) GLOBAL_UNCERTAINTY_ASSIGNED_CONTEXT ( ( #116 ) ) GLOBAL_UNIT_ASSIGNED_CONTEXT ( ( #33, #173, #135 ) ) REPRESENTATION_CONTEXT ( 'NONE', 'WORKASPACE' ) );
#172 = ADVANCED_BREP_SHAPE_REPRESENTATION ( '03-1680', ( #57, #72, #134 ), #11 ) ;
#173 =( NAMED_UNIT ( * ) PLANE_ANGLE_UNIT ( ) SI_UNIT ( $, .RADIAN. ) );
#174 = EDGE_LOOP ( 'NONE', ( #181 ) ) ;
#175 = EDGE_LOOP ( 'NONE', ( #112 ) ) ;
#176 = PRESENTATION_LAYER_ASSIGNMENT (  '', '', ( #162 ) ) ;
#177 = DIRECTION ( 'NONE',  ( -1.000000000000000000, -0.0000000000000000000, -0.0000000000000000000 ) ) ;
#178 = DIRECTION ( 'NONE',  ( 0.0000000000000000000, 0.0000000000000000000, 1.000000000000000000 ) ) ;
#179 = FILL_AREA_STYLE ('',( #94 ) ) ;
#180 = CYLINDRICAL_SURFACE ( 'NONE', #9, 3.700000000000006839 ) ;
#181 = ORIENTED_EDGE ( 'NONE', *, *, #132, .F. ) ;
#182 = UNCERTAINTY_MEASURE_WITH_UNIT (LENGTH_MEASURE( 1.000000000000000082E-05 ), #31, 'distance_accuracy_value', 'NONE');
#183 = DIRECTION ( 'NONE',  ( -1.000000000000000000, -0.0000000000000000000, -0.0000000000000000000 ) ) ;
#184 = ORIENTED_EDGE ( 'NONE', *, *, #113, .F. ) ;
#185 = CYLINDRICAL_SURFACE ( 'NONE', #126, 3.700000000000006839 ) ;
#186 = PRESENTATION_LAYER_ASSIGNMENT (  '', '', ( #77 ) ) ;
#187 = DIRECTION ( 'NONE',  ( 1.000000000000000000, 0.0000000000000000000, 0.0000000000000000000 ) ) ;
#188 = FILL_AREA_STYLE_COLOUR ( '', #193 ) ;
#189 = FILL_AREA_STYLE ('',( #129 ) ) ;
#190 = PRESENTATION_STYLE_ASSIGNMENT (( #81 ) ) ;
#191 = PLANE ( 'NONE',  #23 ) ;
#192 = DIRECTION ( 'NONE',  ( 0.0000000000000000000, 0.0000000000000000000, -1.000000000000000000 ) ) ;
#193 = COLOUR_RGB ( '',1.000000000000000000, 1.000000000000000000, 0.0000000000000000000 ) ;
#194 = CARTESIAN_POINT ( 'NONE',  ( 39.99999999999999289, 0.0000000000000000000, 0.0000000000000000000 ) ) ;
#195 = STYLED_ITEM ( 'NONE', ( #83 ), #62 ) ;
#196 = PRESENTATION_STYLE_ASSIGNMENT (( #111 ) ) ;
#197 =( GEOMETRIC_REPRESENTATION_CONTEXT ( 3 ) GLOBAL_UNCERTAINTY_ASSIGNED_CONTEXT ( ( #150 ) ) GLOBAL_UNIT_ASSIGNED_CONTEXT ( ( #125, #76, #108 ) ) REPRESENTATION_CONTEXT ( 'NONE', 'WORKASPACE' ) );
#198 = COLOUR_RGB ( '',0.7921568627450980005, 0.8196078431372548767, 0.9333333333333333481 ) ;
#199 = DIRECTION ( 'NONE',  ( 0.0000000000000000000, 0.0000000000000000000, 1.000000000000000000 ) ) ;
#200 = CARTESIAN_POINT ( 'NONE',  ( 0.0000000000000000000, 0.0000000000000000000, 0.0000000000000000000 ) ) ;
#201 = EDGE_LOOP ( 'NONE', ( #120 ) ) ;
#202 = DIRECTION ( 'NONE',  ( 0.0000000000000000000, 0.0000000000000000000, -1.000000000000000000 ) ) ;
#203 = DIRECTION ( 'NONE',  ( 1.000000000000000000, 0.0000000000000000000, 0.0000000000000000000 ) ) ;
#204 = UNCERTAINTY_MEASURE_WITH_UNIT (LENGTH_MEASURE( 1.000000000000000082E-05 ), #163, 'distance_accuracy_value', 'NONE');
#205 = AXIS2_PLACEMENT_3D ( 'NONE', #168, #209, #7 ) ;
#206 = DIRECTION ( 'NONE',  ( 0.0000000000000000000, 0.0000000000000000000, -1.000000000000000000 ) ) ;
#207 = ADVANCED_FACE ( 'NONE', ( #122 ), #56, .T. ) ;
#208 = ORIENTED_EDGE ( 'NONE', *, *, #102, .T. ) ;
#209 = DIRECTION ( 'NONE',  ( -1.000000000000000000, -0.0000000000000000000, -0.0000000000000000000 ) ) ;
#210 = MECHANICAL_DESIGN_GEOMETRIC_PRESENTATION_REPRESENTATION (  '', ( #77 ), #46 ) ;
#211 =( LENGTH_UNIT ( ) NAMED_UNIT ( * ) SI_UNIT ( .MILLI., .METRE. ) );
#212 = DIRECTION ( 'NONE',  ( 0.0000000000000000000, 0.0000000000000000000, -1.000000000000000000 ) ) ;
#213 = PRODUCT ( '03-1680', '03-1680', '', ( #34 ) ) ;
ENDSEC;
END-ISO-10303-21;
