ISO-10303-21;
HEADER;
FILE_DESCRIPTION (( 'STEP AP214' ),
    '1' );
FILE_NAME ('03-1681.STEP',
    '2021-10-01T05:37:33',
    ( 'USER' ),
    ( '' ),
    'SwSTEP 2.0',
    'SolidWorks 2018',
    '' );
FILE_SCHEMA (( 'AUTOMOTIVE_DESIGN' ));
ENDSEC;

DATA;
#1 =( NAMED_UNIT ( * ) PLANE_ANGLE_UNIT ( ) SI_UNIT ( $, .RADIAN. ) );
#2 = SURFACE_SIDE_STYLE ('',( #209 ) ) ;
#3 =( LENGTH_UNIT ( ) NAMED_UNIT ( * ) SI_UNIT ( .MILLI., .METRE. ) );
#4 = PLANE ( 'NONE',  #128 ) ;
#5 = EDGE_LOOP ( 'NONE', ( #140 ) ) ;
#6 = EDGE_LOOP ( 'NONE', ( #135 ) ) ;
#7 = CARTESIAN_POINT ( 'NONE',  ( 0.0000000000000000000, 0.0000000000000000000, 0.0000000000000000000 ) ) ;
#8 = EDGE_CURVE ( 'NONE', #127, #127, #200, .T. ) ;
#9 = SHAPE_DEFINITION_REPRESENTATION ( #199, #193 ) ;
#10 = VERTEX_POINT ( 'NONE', #115 ) ;
#11 = VERTEX_POINT ( 'NONE', #122 ) ;
#12 = CARTESIAN_POINT ( 'NONE',  ( 0.7499999999999752420, 0.0000000000000000000, 0.0000000000000000000 ) ) ;
#13 = EDGE_LOOP ( 'NONE', ( #98 ) ) ;
#14 = DIRECTION ( 'NONE',  ( 1.000000000000000000, 0.0000000000000000000, 0.0000000000000000000 ) ) ;
#15 = SURFACE_STYLE_FILL_AREA ( #42 ) ;
#16 = DIRECTION ( 'NONE',  ( 0.0000000000000000000, 0.0000000000000000000, -1.000000000000000000 ) ) ;
#17 = CARTESIAN_POINT ( 'NONE',  ( 39.99999999999999289, 0.0000000000000000000, 0.0000000000000000000 ) ) ;
#18 = ORIENTED_EDGE ( 'NONE', *, *, #131, .T. ) ;
#19 = CONICAL_SURFACE ( 'NONE', #134, 3.000000000000030198, 0.7853981633974489451 ) ;
#20 =( GEOMETRIC_REPRESENTATION_CONTEXT ( 3 ) GLOBAL_UNCERTAINTY_ASSIGNED_CONTEXT ( ( #185 ) ) GLOBAL_UNIT_ASSIGNED_CONTEXT ( ( #80, #23, #44 ) ) REPRESENTATION_CONTEXT ( 'NONE', 'WORKASPACE' ) );
#21 = DIRECTION ( 'NONE',  ( 1.000000000000000000, 0.0000000000000000000, 0.0000000000000000000 ) ) ;
#22 = DIRECTION ( 'NONE',  ( -1.000000000000000000, -0.0000000000000000000, -0.0000000000000000000 ) ) ;
#23 =( NAMED_UNIT ( * ) PLANE_ANGLE_UNIT ( ) SI_UNIT ( $, .RADIAN. ) );
#24 = CLOSED_SHELL ( 'NONE', ( #112, #61, #195, #85 ) ) ;
#25 = CARTESIAN_POINT ( 'NONE',  ( -2.296212748401286986E-16, 0.0000000000000000000, 0.0000000000000000000 ) ) ;
#26 = SURFACE_STYLE_FILL_AREA ( #92 ) ;
#27 = AXIS2_PLACEMENT_3D ( 'NONE', #66, #147, #132 ) ;
#28 = MANIFOLD_SOLID_BREP ( 'ºÐÇÒ2[2]', #184 ) ;
#29 = DIRECTION ( 'NONE',  ( 1.000000000000000000, 0.0000000000000000000, 0.0000000000000000000 ) ) ;
#30 = FACE_OUTER_BOUND ( 'NONE', #13, .T. ) ;
#31 = SURFACE_STYLE_USAGE ( .BOTH. , #87 ) ;
#32 = ADVANCED_FACE ( 'NONE', ( #30, #211 ), #188, .T. ) ;
#33 = DIRECTION ( 'NONE',  ( 0.0000000000000000000, 0.0000000000000000000, -1.000000000000000000 ) ) ;
#34 = ADVANCED_FACE ( 'NONE', ( #139 ), #158, .T. ) ;
#35 = DIRECTION ( 'NONE',  ( 0.0000000000000000000, 0.0000000000000000000, 1.000000000000000000 ) ) ;
#36 = FILL_AREA_STYLE ('',( #105 ) ) ;
#37 = AXIS2_PLACEMENT_3D ( 'NONE', #60, #116, #35 ) ;
#38 = PRODUCT_DEFINITION_FORMATION_WITH_SPECIFIED_SOURCE ( 'ANY', '', #191, .NOT_KNOWN. ) ;
#39 =( NAMED_UNIT ( * ) PLANE_ANGLE_UNIT ( ) SI_UNIT ( $, .RADIAN. ) );
#40 = FACE_OUTER_BOUND ( 'NONE', #205, .T. ) ;
#41 = FILL_AREA_STYLE ('',( #65 ) ) ;
#42 = FILL_AREA_STYLE ('',( #160 ) ) ;
#43 = VERTEX_POINT ( 'NONE', #100 ) ;
#44 =( NAMED_UNIT ( * ) SI_UNIT ( $, .STERADIAN. ) SOLID_ANGLE_UNIT ( ) );
#45 = COLOUR_RGB ( '',0.7921568627450980005, 0.8196078431372548767, 0.9333333333333333481 ) ;
#46 = PRESENTATION_STYLE_ASSIGNMENT (( #104 ) ) ;
#47 = DIRECTION ( 'NONE',  ( 1.000000000000000000, 0.0000000000000000000, 0.0000000000000000000 ) ) ;
#48 = SURFACE_SIDE_STYLE ('',( #170 ) ) ;
#49 = SURFACE_STYLE_USAGE ( .BOTH. , #48 ) ;
#50 = EDGE_LOOP ( 'NONE', ( #171 ) ) ;
#51 = MECHANICAL_DESIGN_GEOMETRIC_PRESENTATION_REPRESENTATION (  '', ( #179 ), #69 ) ;
#52 =( LENGTH_UNIT ( ) NAMED_UNIT ( * ) SI_UNIT ( .MILLI., .METRE. ) );
#53 =( NAMED_UNIT ( * ) SI_UNIT ( $, .STERADIAN. ) SOLID_ANGLE_UNIT ( ) );
#54 = AXIS2_PLACEMENT_3D ( 'NONE', #81, #62, #72 ) ;
#55 = DIRECTION ( 'NONE',  ( 0.0000000000000000000, 0.0000000000000000000, 1.000000000000000000 ) ) ;
#56 = PRODUCT_DEFINITION ( 'UNKNOWN', '', #38, #144 ) ;
#57 = CARTESIAN_POINT ( 'NONE',  ( 0.0000000000000000000, 0.0000000000000000000, 0.0000000000000000000 ) ) ;
#58 = PLANE ( 'NONE',  #54 ) ;
#59 = DIRECTION ( 'NONE',  ( -1.000000000000000000, -0.0000000000000000000, -0.0000000000000000000 ) ) ;
#60 = CARTESIAN_POINT ( 'NONE',  ( 107.4466991411008792, 0.0000000000000000000, 0.0000000000000000000 ) ) ;
#61 = ADVANCED_FACE ( 'NONE', ( #40 ), #58, .F. ) ;
#62 = DIRECTION ( 'NONE',  ( 1.000000000000000000, 0.0000000000000000000, 0.0000000000000000000 ) ) ;
#63 = DIRECTION ( 'NONE',  ( 0.0000000000000000000, 0.0000000000000000000, 1.000000000000000000 ) ) ;
#64 =( NAMED_UNIT ( * ) PLANE_ANGLE_UNIT ( ) SI_UNIT ( $, .RADIAN. ) );
#65 = FILL_AREA_STYLE_COLOUR ( '', #165 ) ;
#66 = CARTESIAN_POINT ( 'NONE',  ( 0.0000000000000000000, 0.0000000000000000000, 0.0000000000000000000 ) ) ;
#67 = DIRECTION ( 'NONE',  ( 0.0000000000000000000, 0.0000000000000000000, 1.000000000000000000 ) ) ;
#68 = VERTEX_POINT ( 'NONE', #119 ) ;
#69 =( GEOMETRIC_REPRESENTATION_CONTEXT ( 3 ) GLOBAL_UNCERTAINTY_ASSIGNED_CONTEXT ( ( #145 ) ) GLOBAL_UNIT_ASSIGNED_CONTEXT ( ( #3, #1, #196 ) ) REPRESENTATION_CONTEXT ( 'NONE', 'WORKASPACE' ) );
#70 =( NAMED_UNIT ( * ) SI_UNIT ( $, .STERADIAN. ) SOLID_ANGLE_UNIT ( ) );
#71 = SURFACE_SIDE_STYLE ('',( #15 ) ) ;
#72 = DIRECTION ( 'NONE',  ( 0.0000000000000000000, 0.0000000000000000000, -1.000000000000000000 ) ) ;
#73 =( NAMED_UNIT ( * ) PLANE_ANGLE_UNIT ( ) SI_UNIT ( $, .RADIAN. ) );
#74 = APPLICATION_CONTEXT ( 'automotive_design' ) ;
#75 = DIRECTION ( 'NONE',  ( 1.000000000000000000, 0.0000000000000000000, 0.0000000000000000000 ) ) ;
#76 = PRESENTATION_LAYER_ASSIGNMENT (  '', '', ( #153 ) ) ;
#77 = FILL_AREA_STYLE_COLOUR ( '', #146 ) ;
#78 = DIRECTION ( 'NONE',  ( 1.000000000000000000, 0.0000000000000000000, 0.0000000000000000000 ) ) ;
#79 = PRESENTATION_STYLE_ASSIGNMENT (( #94 ) ) ;
#80 =( LENGTH_UNIT ( ) NAMED_UNIT ( * ) SI_UNIT ( .MILLI., .METRE. ) );
#81 = CARTESIAN_POINT ( 'NONE',  ( -2.296212748401286986E-16, 3.750000000000000000, 0.0000000000000000000 ) ) ;
#82 = CARTESIAN_POINT ( 'NONE',  ( -891.0000000000000000, 0.0000000000000000000, 0.0000000000000000000 ) ) ;
#83 = PRODUCT_CONTEXT ( 'NONE', #190, 'mechanical' ) ;
#84 = DIRECTION ( 'NONE',  ( 1.000000000000000000, 0.0000000000000000000, 0.0000000000000000000 ) ) ;
#85 = ADVANCED_FACE ( 'NONE', ( #155 ), #110, .T. ) ;
#86 = PRESENTATION_LAYER_ASSIGNMENT (  '', '', ( #101 ) ) ;
#87 = SURFACE_SIDE_STYLE ('',( #108 ) ) ;
#88 = DIRECTION ( 'NONE',  ( 0.0000000000000000000, 0.0000000000000000000, -1.000000000000000000 ) ) ;
#89 = SURFACE_SIDE_STYLE ('',( #26 ) ) ;
#90 = CIRCLE ( 'NONE', #91, 3.750000000000006661 ) ;
#91 = AXIS2_PLACEMENT_3D ( 'NONE', #12, #14, #88 ) ;
#92 = FILL_AREA_STYLE ('',( #93 ) ) ;
#93 = FILL_AREA_STYLE_COLOUR ( '', #206 ) ;
#94 = SURFACE_STYLE_USAGE ( .BOTH. , #71 ) ;
#95 =( NAMED_UNIT ( * ) PLANE_ANGLE_UNIT ( ) SI_UNIT ( $, .RADIAN. ) );
#96 = UNCERTAINTY_MEASURE_WITH_UNIT (LENGTH_MEASURE( 1.000000000000000082E-05 ), #111, 'distance_accuracy_value', 'NONE');
#97 = CIRCLE ( 'NONE', #113, 3.750000000000006661 ) ;
#98 = ORIENTED_EDGE ( 'NONE', *, *, #198, .T. ) ;
#99 = DIRECTION ( 'NONE',  ( 0.0000000000000000000, 0.0000000000000000000, -1.000000000000000000 ) ) ;
#100 = CARTESIAN_POINT ( 'NONE',  ( 107.4466991411008792, 0.0000000000000000000, 3.750000000000013323 ) ) ;
#101 = STYLED_ITEM ( 'NONE', ( #46 ), #193 ) ;
#102 =( LENGTH_UNIT ( ) NAMED_UNIT ( * ) SI_UNIT ( .MILLI., .METRE. ) );
#103 = UNCERTAINTY_MEASURE_WITH_UNIT (LENGTH_MEASURE( 1.000000000000000082E-05 ), #52, 'distance_accuracy_value', 'NONE');
#104 = SURFACE_STYLE_USAGE ( .BOTH. , #89 ) ;
#105 = FILL_AREA_STYLE_COLOUR ( '', #152 ) ;
#106 = AXIS2_PLACEMENT_3D ( 'NONE', #7, #22, #67 ) ;
#107 = FACE_OUTER_BOUND ( 'NONE', #156, .T. ) ;
#108 = SURFACE_STYLE_FILL_AREA ( #36 ) ;
#109 = PRESENTATION_STYLE_ASSIGNMENT (( #141 ) ) ;
#110 = PLANE ( 'NONE',  #177 ) ;
#111 =( LENGTH_UNIT ( ) NAMED_UNIT ( * ) SI_UNIT ( .MILLI., .METRE. ) );
#112 = ADVANCED_FACE ( 'NONE', ( #107, #181 ), #197, .T. ) ;
#113 = AXIS2_PLACEMENT_3D ( 'NONE', #202, #21, #99 ) ;
#114 = APPLICATION_PROTOCOL_DEFINITION ( 'draft international standard', 'automotive_design', 1998, #190 ) ;
#115 = CARTESIAN_POINT ( 'NONE',  ( -2.296212748401286986E-16, 0.0000000000000000000, -3.000000000000030198 ) ) ;
#116 = DIRECTION ( 'NONE',  ( -1.000000000000000000, -0.0000000000000000000, -0.0000000000000000000 ) ) ;
#117 = DIRECTION ( 'NONE',  ( -1.000000000000000000, -0.0000000000000000000, -0.0000000000000000000 ) ) ;
#118 = CARTESIAN_POINT ( 'NONE',  ( -2.296212748401286986E-16, 0.0000000000000000000, 0.0000000000000000000 ) ) ;
#119 = CARTESIAN_POINT ( 'NONE',  ( 39.99999999999999289, 0.0000000000000000000, -3.750000000000006661 ) ) ;
#120 = FACE_OUTER_BOUND ( 'NONE', #5, .T. ) ;
#121 = PRESENTATION_LAYER_ASSIGNMENT (  '', '', ( #179 ) ) ;
#122 = CARTESIAN_POINT ( 'NONE',  ( 0.7499999999999752420, 0.0000000000000000000, -3.750000000000006661 ) ) ;
#123 = DIRECTION ( 'NONE',  ( 0.0000000000000000000, 0.0000000000000000000, -1.000000000000000000 ) ) ;
#124 = STYLED_ITEM ( 'NONE', ( #137 ), #32 ) ;
#125 = MANIFOLD_SOLID_BREP ( 'ºÐÇÒ2[1]', #24 ) ;
#126 = CARTESIAN_POINT ( 'NONE',  ( 39.99999999999999289, 0.0000000000000000000, 0.0000000000000000000 ) ) ;
#127 = VERTEX_POINT ( 'NONE', #130 ) ;
#128 = AXIS2_PLACEMENT_3D ( 'NONE', #17, #47, #194 ) ;
#129 = FACE_OUTER_BOUND ( 'NONE', #150, .T. ) ;
#130 = CARTESIAN_POINT ( 'NONE',  ( 39.99999999999999289, 0.0000000000000000000, -3.750000000000006661 ) ) ;
#131 = EDGE_CURVE ( 'NONE', #43, #43, #183, .T. ) ;
#132 = DIRECTION ( 'NONE',  ( 0.0000000000000000000, 0.0000000000000000000, 1.000000000000000000 ) ) ;
#133 = MECHANICAL_DESIGN_GEOMETRIC_PRESENTATION_REPRESENTATION (  '', ( #101 ), #168 ) ;
#134 = AXIS2_PLACEMENT_3D ( 'NONE', #25, #78, #16 ) ;
#135 = ORIENTED_EDGE ( 'NONE', *, *, #8, .F. ) ;
#136 = EDGE_LOOP ( 'NONE', ( #143 ) ) ;
#137 = PRESENTATION_STYLE_ASSIGNMENT (( #31 ) ) ;
#138 = AXIS2_PLACEMENT_3D ( 'NONE', #126, #75, #33 ) ;
#139 = FACE_OUTER_BOUND ( 'NONE', #157, .T. ) ;
#140 = ORIENTED_EDGE ( 'NONE', *, *, #198, .F. ) ;
#141 = SURFACE_STYLE_USAGE ( .BOTH. , #2 ) ;
#142 =( GEOMETRIC_REPRESENTATION_CONTEXT ( 3 ) GLOBAL_UNCERTAINTY_ASSIGNED_CONTEXT ( ( #103 ) ) GLOBAL_UNIT_ASSIGNED_CONTEXT ( ( #52, #64, #53 ) ) REPRESENTATION_CONTEXT ( 'NONE', 'WORKASPACE' ) );
#143 = ORIENTED_EDGE ( 'NONE', *, *, #212, .F. ) ;
#144 = PRODUCT_DEFINITION_CONTEXT ( 'detailed design', #74, 'design' ) ;
#145 = UNCERTAINTY_MEASURE_WITH_UNIT (LENGTH_MEASURE( 1.000000000000000082E-05 ), #3, 'distance_accuracy_value', 'NONE');
#146 = COLOUR_RGB ( '',0.7921568627450980005, 0.8196078431372548767, 0.9333333333333333481 ) ;
#147 = DIRECTION ( 'NONE',  ( -1.000000000000000000, -0.0000000000000000000, -0.0000000000000000000 ) ) ;
#148 =( NAMED_UNIT ( * ) SI_UNIT ( $, .STERADIAN. ) SOLID_ANGLE_UNIT ( ) );
#149 = PRESENTATION_LAYER_ASSIGNMENT (  '', '', ( #180 ) ) ;
#150 = EDGE_LOOP ( 'NONE', ( #154 ) ) ;
#151 =( LENGTH_UNIT ( ) NAMED_UNIT ( * ) SI_UNIT ( .MILLI., .METRE. ) );
#152 = COLOUR_RGB ( '',1.000000000000000000, 1.000000000000000000, 0.0000000000000000000 ) ;
#153 = STYLED_ITEM ( 'NONE', ( #109 ), #28 ) ;
#154 = ORIENTED_EDGE ( 'NONE', *, *, #203, .F. ) ;
#155 = FACE_OUTER_BOUND ( 'NONE', #50, .T. ) ;
#156 = EDGE_LOOP ( 'NONE', ( #166 ) ) ;
#157 = EDGE_LOOP ( 'NONE', ( #161 ) ) ;
#158 = CONICAL_SURFACE ( 'NONE', #175, 2414.213562373073728, 1.178097245096169310 ) ;
#159 = PRESENTATION_STYLE_ASSIGNMENT (( #49 ) ) ;
#160 = FILL_AREA_STYLE_COLOUR ( '', #45 ) ;
#161 = ORIENTED_EDGE ( 'NONE', *, *, #131, .F. ) ;
#162 = FACE_BOUND ( 'NONE', #136, .T. ) ;
#163 = ORIENTED_EDGE ( 'NONE', *, *, #212, .T. ) ;
#164 = AXIS2_PLACEMENT_3D ( 'NONE', #118, #117, #123 ) ;
#165 = COLOUR_RGB ( '',1.000000000000000000, 1.000000000000000000, 0.0000000000000000000 ) ;
#166 = ORIENTED_EDGE ( 'NONE', *, *, #203, .T. ) ;
#167 = CARTESIAN_POINT ( 'NONE',  ( 39.99999999999999289, 0.0000000000000000000, 0.0000000000000000000 ) ) ;
#168 =( GEOMETRIC_REPRESENTATION_CONTEXT ( 3 ) GLOBAL_UNCERTAINTY_ASSIGNED_CONTEXT ( ( #204 ) ) GLOBAL_UNIT_ASSIGNED_CONTEXT ( ( #102, #95, #187 ) ) REPRESENTATION_CONTEXT ( 'NONE', 'WORKASPACE' ) );
#169 = FILL_AREA_STYLE ('',( #77 ) ) ;
#170 = SURFACE_STYLE_FILL_AREA ( #41 ) ;
#171 = ORIENTED_EDGE ( 'NONE', *, *, #8, .T. ) ;
#172 = ADVANCED_FACE ( 'NONE', ( #120 ), #4, .F. ) ;
#173 = UNCERTAINTY_MEASURE_WITH_UNIT (LENGTH_MEASURE( 1.000000000000000082E-05 ), #151, 'distance_accuracy_value', 'NONE');
#174 = CIRCLE ( 'NONE', #164, 3.000000000000030198 ) ;
#175 = AXIS2_PLACEMENT_3D ( 'NONE', #82, #59, #55 ) ;
#176 = EDGE_LOOP ( 'NONE', ( #18 ) ) ;
#177 = AXIS2_PLACEMENT_3D ( 'NONE', #167, #29, #178 ) ;
#178 = DIRECTION ( 'NONE',  ( 0.0000000000000000000, 0.0000000000000000000, -1.000000000000000000 ) ) ;
#179 = STYLED_ITEM ( 'NONE', ( #79 ), #125 ) ;
#180 = STYLED_ITEM ( 'NONE', ( #159 ), #34 ) ;
#181 = FACE_OUTER_BOUND ( 'NONE', #6, .T. ) ;
#182 = MECHANICAL_DESIGN_GEOMETRIC_PRESENTATION_REPRESENTATION (  '', ( #180 ), #142 ) ;
#183 = CIRCLE ( 'NONE', #37, 3.750000000000013323 ) ;
#184 = CLOSED_SHELL ( 'NONE', ( #172, #32, #34 ) ) ;
#185 = UNCERTAINTY_MEASURE_WITH_UNIT (LENGTH_MEASURE( 1.000000000000000082E-05 ), #80, 'distance_accuracy_value', 'NONE');
#186 =( GEOMETRIC_REPRESENTATION_CONTEXT ( 3 ) GLOBAL_UNCERTAINTY_ASSIGNED_CONTEXT ( ( #173 ) ) GLOBAL_UNIT_ASSIGNED_CONTEXT ( ( #151, #39, #148 ) ) REPRESENTATION_CONTEXT ( 'NONE', 'WORKASPACE' ) );
#187 =( NAMED_UNIT ( * ) SI_UNIT ( $, .STERADIAN. ) SOLID_ANGLE_UNIT ( ) );
#188 = CYLINDRICAL_SURFACE ( 'NONE', #106, 3.750000000000006661 ) ;
#189 = AXIS2_PLACEMENT_3D ( 'NONE', #57, #63, #84 ) ;
#190 = APPLICATION_CONTEXT ( 'automotive_design' ) ;
#191 = PRODUCT ( '03-1681', '03-1681', '', ( #83 ) ) ;
#192 = MECHANICAL_DESIGN_GEOMETRIC_PRESENTATION_REPRESENTATION (  '', ( #124 ), #201 ) ;
#193 = ADVANCED_BREP_SHAPE_REPRESENTATION ( '03-1681', ( #125, #28, #189 ), #186 ) ;
#194 = DIRECTION ( 'NONE',  ( 0.0000000000000000000, 0.0000000000000000000, -1.000000000000000000 ) ) ;
#195 = ADVANCED_FACE ( 'NONE', ( #129, #162 ), #19, .T. ) ;
#196 =( NAMED_UNIT ( * ) SI_UNIT ( $, .STERADIAN. ) SOLID_ANGLE_UNIT ( ) );
#197 = CYLINDRICAL_SURFACE ( 'NONE', #27, 3.750000000000006661 ) ;
#198 = EDGE_CURVE ( 'NONE', #68, #68, #97, .T. ) ;
#199 = PRODUCT_DEFINITION_SHAPE ( 'NONE', 'NONE',  #56 ) ;
#200 = CIRCLE ( 'NONE', #138, 3.750000000000006661 ) ;
#201 =( GEOMETRIC_REPRESENTATION_CONTEXT ( 3 ) GLOBAL_UNCERTAINTY_ASSIGNED_CONTEXT ( ( #96 ) ) GLOBAL_UNIT_ASSIGNED_CONTEXT ( ( #111, #73, #70 ) ) REPRESENTATION_CONTEXT ( 'NONE', 'WORKASPACE' ) );
#202 = CARTESIAN_POINT ( 'NONE',  ( 39.99999999999999289, 0.0000000000000000000, 0.0000000000000000000 ) ) ;
#203 = EDGE_CURVE ( 'NONE', #11, #11, #90, .T. ) ;
#204 = UNCERTAINTY_MEASURE_WITH_UNIT (LENGTH_MEASURE( 1.000000000000000082E-05 ), #102, 'distance_accuracy_value', 'NONE');
#205 = EDGE_LOOP ( 'NONE', ( #163 ) ) ;
#206 = COLOUR_RGB ( '',0.7921568627450980005, 0.8196078431372548767, 0.9333333333333333481 ) ;
#207 = APPLICATION_PROTOCOL_DEFINITION ( 'draft international standard', 'automotive_design', 1998, #74 ) ;
#208 = PRODUCT_RELATED_PRODUCT_CATEGORY ( 'part', '', ( #191 ) ) ;
#209 = SURFACE_STYLE_FILL_AREA ( #169 ) ;
#210 = MECHANICAL_DESIGN_GEOMETRIC_PRESENTATION_REPRESENTATION (  '', ( #153 ), #20 ) ;
#211 = FACE_OUTER_BOUND ( 'NONE', #176, .T. ) ;
#212 = EDGE_CURVE ( 'NONE', #10, #10, #174, .T. ) ;
#213 = PRESENTATION_LAYER_ASSIGNMENT (  '', '', ( #124 ) ) ;
ENDSEC;
END-ISO-10303-21;
