ISO-10303-21;
HEADER;
FILE_DESCRIPTION (( 'STEP AP214' ),
    '1' );
FILE_NAME ('03-1683.STEP',
    '2021-10-01T05:38:11',
    ( 'USER' ),
    ( '' ),
    'SwSTEP 2.0',
    'SolidWorks 2018',
    '' );
FILE_SCHEMA (( 'AUTOMOTIVE_DESIGN' ));
ENDSEC;

DATA;
#1 = COLOUR_RGB ( '',0.7921568627450980005, 0.8196078431372548767, 0.9333333333333333481 ) ;
#2 = SURFACE_STYLE_USAGE ( .BOTH. , #26 ) ;
#3 = PRESENTATION_LAYER_ASSIGNMENT (  '', '', ( #159 ) ) ;
#4 = SURFACE_STYLE_USAGE ( .BOTH. , #191 ) ;
#5 = FACE_OUTER_BOUND ( 'NONE', #183, .T. ) ;
#6 = FILL_AREA_STYLE_COLOUR ( '', #213 ) ;
#7 = APPLICATION_PROTOCOL_DEFINITION ( 'draft international standard', 'automotive_design', 1998, #98 ) ;
#8 = DIRECTION ( 'NONE',  ( -1.000000000000000000, -0.0000000000000000000, -0.0000000000000000000 ) ) ;
#9 = EDGE_LOOP ( 'NONE', ( #22 ) ) ;
#10 = CIRCLE ( 'NONE', #173, 3.850000000000007638 ) ;
#11 = CIRCLE ( 'NONE', #19, 3.850000000000007638 ) ;
#12 = DIRECTION ( 'NONE',  ( 0.0000000000000000000, 0.0000000000000000000, 1.000000000000000000 ) ) ;
#13 = VERTEX_POINT ( 'NONE', #53 ) ;
#14 = VERTEX_POINT ( 'NONE', #40 ) ;
#15 = PLANE ( 'NONE',  #97 ) ;
#16 = ORIENTED_EDGE ( 'NONE', *, *, #157, .F. ) ;
#17 = DIRECTION ( 'NONE',  ( 0.0000000000000000000, 0.0000000000000000000, -1.000000000000000000 ) ) ;
#18 = VERTEX_POINT ( 'NONE', #140 ) ;
#19 = AXIS2_PLACEMENT_3D ( 'NONE', #106, #125, #17 ) ;
#20 = PRODUCT ( '03-1683', '03-1683', '', ( #179 ) ) ;
#21 = EDGE_LOOP ( 'NONE', ( #205 ) ) ;
#22 = ORIENTED_EDGE ( 'NONE', *, *, #169, .F. ) ;
#23 = EDGE_LOOP ( 'NONE', ( #16 ) ) ;
#24 =( GEOMETRIC_REPRESENTATION_CONTEXT ( 3 ) GLOBAL_UNCERTAINTY_ASSIGNED_CONTEXT ( ( #110 ) ) GLOBAL_UNIT_ASSIGNED_CONTEXT ( ( #181, #208, #178 ) ) REPRESENTATION_CONTEXT ( 'NONE', 'WORKASPACE' ) );
#25 = DIRECTION ( 'NONE',  ( 1.000000000000000000, 0.0000000000000000000, 0.0000000000000000000 ) ) ;
#26 = SURFACE_SIDE_STYLE ('',( #55 ) ) ;
#27 = ADVANCED_FACE ( 'NONE', ( #174 ), #65, .T. ) ;
#28 = MANIFOLD_SOLID_BREP ( 'ºÐÇÒ2[1]', #126 ) ;
#29 =( NAMED_UNIT ( * ) PLANE_ANGLE_UNIT ( ) SI_UNIT ( $, .RADIAN. ) );
#30 =( NAMED_UNIT ( * ) SI_UNIT ( $, .STERADIAN. ) SOLID_ANGLE_UNIT ( ) );
#31 = DIRECTION ( 'NONE',  ( 0.0000000000000000000, 0.0000000000000000000, -1.000000000000000000 ) ) ;
#32 = CIRCLE ( 'NONE', #70, 3.850000000000014300 ) ;
#33 = DIRECTION ( 'NONE',  ( 0.0000000000000000000, 0.0000000000000000000, 1.000000000000000000 ) ) ;
#34 = CARTESIAN_POINT ( 'NONE',  ( 42.00000000000000711, 0.0000000000000000000, 0.0000000000000000000 ) ) ;
#35 = MECHANICAL_DESIGN_GEOMETRIC_PRESENTATION_REPRESENTATION (  '', ( #129 ), #102 ) ;
#36 = CIRCLE ( 'NONE', #196, 3.850000000000007638 ) ;
#37 = CARTESIAN_POINT ( 'NONE',  ( -2.357445088358654757E-16, 3.850000000000000533, 0.0000000000000000000 ) ) ;
#38 = EDGE_LOOP ( 'NONE', ( #79 ) ) ;
#39 = FACE_OUTER_BOUND ( 'NONE', #128, .T. ) ;
#40 = CARTESIAN_POINT ( 'NONE',  ( 42.00000000000000711, 0.0000000000000000000, -3.850000000000007638 ) ) ;
#41 =( LENGTH_UNIT ( ) NAMED_UNIT ( * ) SI_UNIT ( .MILLI., .METRE. ) );
#42 = UNCERTAINTY_MEASURE_WITH_UNIT (LENGTH_MEASURE( 1.000000000000000082E-05 ), #41, 'distance_accuracy_value', 'NONE');
#43 = CARTESIAN_POINT ( 'NONE',  ( -883.0000000000000000, 0.0000000000000000000, 0.0000000000000000000 ) ) ;
#44 = SURFACE_STYLE_FILL_AREA ( #45 ) ;
#45 = FILL_AREA_STYLE ('',( #144 ) ) ;
#46 = DIRECTION ( 'NONE',  ( 0.0000000000000000000, 0.0000000000000000000, -1.000000000000000000 ) ) ;
#47 = ADVANCED_FACE ( 'NONE', ( #50 ), #175, .T. ) ;
#48 = FILL_AREA_STYLE_COLOUR ( '', #124 ) ;
#49 = AXIS2_PLACEMENT_3D ( 'NONE', #145, #25, #156 ) ;
#50 = FACE_OUTER_BOUND ( 'NONE', #38, .T. ) ;
#51 = CARTESIAN_POINT ( 'NONE',  ( -2.357445088358654757E-16, 0.0000000000000000000, 0.0000000000000000000 ) ) ;
#52 = FACE_OUTER_BOUND ( 'NONE', #119, .T. ) ;
#53 = CARTESIAN_POINT ( 'NONE',  ( 115.4052777848635571, 0.0000000000000000000, 3.850000000000014300 ) ) ;
#54 = MECHANICAL_DESIGN_GEOMETRIC_PRESENTATION_REPRESENTATION (  '', ( #149 ), #24 ) ;
#55 = SURFACE_STYLE_FILL_AREA ( #93 ) ;
#56 = COLOUR_RGB ( '',1.000000000000000000, 1.000000000000000000, 0.0000000000000000000 ) ;
#57 = CIRCLE ( 'NONE', #165, 3.079999999999999183 ) ;
#58 = DIRECTION ( 'NONE',  ( 0.0000000000000000000, 0.0000000000000000000, 1.000000000000000000 ) ) ;
#59 = AXIS2_PLACEMENT_3D ( 'NONE', #94, #83, #193 ) ;
#60 = EDGE_LOOP ( 'NONE', ( #111 ) ) ;
#61 = FACE_OUTER_BOUND ( 'NONE', #60, .T. ) ;
#62 = ORIENTED_EDGE ( 'NONE', *, *, #201, .F. ) ;
#63 = CYLINDRICAL_SURFACE ( 'NONE', #107, 3.850000000000007638 ) ;
#64 = FACE_OUTER_BOUND ( 'NONE', #72, .T. ) ;
#65 = CONICAL_SURFACE ( 'NONE', #117, 2414.213562373062814, 1.178097245096167756 ) ;
#66 =( NAMED_UNIT ( * ) PLANE_ANGLE_UNIT ( ) SI_UNIT ( $, .RADIAN. ) );
#67 = PRESENTATION_STYLE_ASSIGNMENT (( #162 ) ) ;
#68 = MECHANICAL_DESIGN_GEOMETRIC_PRESENTATION_REPRESENTATION (  '', ( #159 ), #209 ) ;
#69 = DIRECTION ( 'NONE',  ( 0.0000000000000000000, 0.0000000000000000000, 1.000000000000000000 ) ) ;
#70 = AXIS2_PLACEMENT_3D ( 'NONE', #176, #158, #132 ) ;
#71 = CLOSED_SHELL ( 'NONE', ( #115, #95, #27 ) ) ;
#72 = EDGE_LOOP ( 'NONE', ( #186 ) ) ;
#73 = SURFACE_SIDE_STYLE ('',( #105 ) ) ;
#74 = AXIS2_PLACEMENT_3D ( 'NONE', #168, #33, #121 ) ;
#75 = FACE_OUTER_BOUND ( 'NONE', #21, .T. ) ;
#76 = ADVANCED_BREP_SHAPE_REPRESENTATION ( '03-1683', ( #28, #87, #74 ), #138 ) ;
#77 = DIRECTION ( 'NONE',  ( 1.000000000000000000, 0.0000000000000000000, 0.0000000000000000000 ) ) ;
#78 = DIRECTION ( 'NONE',  ( 0.0000000000000000000, 0.0000000000000000000, -1.000000000000000000 ) ) ;
#79 = ORIENTED_EDGE ( 'NONE', *, *, #184, .T. ) ;
#80 = PRODUCT_DEFINITION_CONTEXT ( 'detailed design', #98, 'design' ) ;
#81 = STYLED_ITEM ( 'NONE', ( #67 ), #76 ) ;
#82 = DIRECTION ( 'NONE',  ( -1.000000000000000000, -0.0000000000000000000, -0.0000000000000000000 ) ) ;
#83 = DIRECTION ( 'NONE',  ( 1.000000000000000000, 0.0000000000000000000, 0.0000000000000000000 ) ) ;
#84 = STYLED_ITEM ( 'NONE', ( #151 ), #95 ) ;
#85 = ORIENTED_EDGE ( 'NONE', *, *, #190, .T. ) ;
#86 = CARTESIAN_POINT ( 'NONE',  ( 0.7700000000000073452, 0.0000000000000000000, 0.0000000000000000000 ) ) ;
#87 = MANIFOLD_SOLID_BREP ( 'ºÐÇÒ2[2]', #71 ) ;
#88 = PLANE ( 'NONE',  #131 ) ;
#89 = PRESENTATION_STYLE_ASSIGNMENT (( #4 ) ) ;
#90 = PRESENTATION_LAYER_ASSIGNMENT (  '', '', ( #129 ) ) ;
#91 =( LENGTH_UNIT ( ) NAMED_UNIT ( * ) SI_UNIT ( .MILLI., .METRE. ) );
#92 =( LENGTH_UNIT ( ) NAMED_UNIT ( * ) SI_UNIT ( .MILLI., .METRE. ) );
#93 = FILL_AREA_STYLE ('',( #48 ) ) ;
#94 = CARTESIAN_POINT ( 'NONE',  ( -2.357445088358654757E-16, 0.0000000000000000000, 0.0000000000000000000 ) ) ;
#95 = ADVANCED_FACE ( 'NONE', ( #154, #75 ), #63, .T. ) ;
#96 = DIRECTION ( 'NONE',  ( -1.000000000000000000, -0.0000000000000000000, -0.0000000000000000000 ) ) ;
#97 = AXIS2_PLACEMENT_3D ( 'NONE', #34, #147, #103 ) ;
#98 = APPLICATION_CONTEXT ( 'automotive_design' ) ;
#99 = PRESENTATION_STYLE_ASSIGNMENT (( #120 ) ) ;
#100 = APPLICATION_CONTEXT ( 'automotive_design' ) ;
#101 = CONICAL_SURFACE ( 'NONE', #59, 3.079999999999999183, 0.7853981633974485010 ) ;
#102 =( GEOMETRIC_REPRESENTATION_CONTEXT ( 3 ) GLOBAL_UNCERTAINTY_ASSIGNED_CONTEXT ( ( #166 ) ) GLOBAL_UNIT_ASSIGNED_CONTEXT ( ( #91, #66, #112 ) ) REPRESENTATION_CONTEXT ( 'NONE', 'WORKASPACE' ) );
#103 = DIRECTION ( 'NONE',  ( 0.0000000000000000000, 0.0000000000000000000, -1.000000000000000000 ) ) ;
#104 = CARTESIAN_POINT ( 'NONE',  ( 42.00000000000000711, 0.0000000000000000000, 0.0000000000000000000 ) ) ;
#105 = SURFACE_STYLE_FILL_AREA ( #182 ) ;
#106 = CARTESIAN_POINT ( 'NONE',  ( 42.00000000000000711, 0.0000000000000000000, 0.0000000000000000000 ) ) ;
#107 = AXIS2_PLACEMENT_3D ( 'NONE', #142, #82, #12 ) ;
#108 = PRODUCT_RELATED_PRODUCT_CATEGORY ( 'part', '', ( #20 ) ) ;
#109 = PRESENTATION_LAYER_ASSIGNMENT (  '', '', ( #81 ) ) ;
#110 = UNCERTAINTY_MEASURE_WITH_UNIT (LENGTH_MEASURE( 1.000000000000000082E-05 ), #181, 'distance_accuracy_value', 'NONE');
#111 = ORIENTED_EDGE ( 'NONE', *, *, #190, .F. ) ;
#112 =( NAMED_UNIT ( * ) SI_UNIT ( $, .STERADIAN. ) SOLID_ANGLE_UNIT ( ) );
#113 =( GEOMETRIC_REPRESENTATION_CONTEXT ( 3 ) GLOBAL_UNCERTAINTY_ASSIGNED_CONTEXT ( ( #146 ) ) GLOBAL_UNIT_ASSIGNED_CONTEXT ( ( #118, #29, #30 ) ) REPRESENTATION_CONTEXT ( 'NONE', 'WORKASPACE' ) );
#114 =( NAMED_UNIT ( * ) SI_UNIT ( $, .STERADIAN. ) SOLID_ANGLE_UNIT ( ) );
#115 = ADVANCED_FACE ( 'NONE', ( #39 ), #15, .F. ) ;
#116 = CARTESIAN_POINT ( 'NONE',  ( 0.0000000000000000000, 0.0000000000000000000, 0.0000000000000000000 ) ) ;
#117 = AXIS2_PLACEMENT_3D ( 'NONE', #43, #96, #69 ) ;
#118 =( LENGTH_UNIT ( ) NAMED_UNIT ( * ) SI_UNIT ( .MILLI., .METRE. ) );
#119 = EDGE_LOOP ( 'NONE', ( #85 ) ) ;
#120 = SURFACE_STYLE_USAGE ( .BOTH. , #188 ) ;
#121 = DIRECTION ( 'NONE',  ( 1.000000000000000000, 0.0000000000000000000, 0.0000000000000000000 ) ) ;
#122 = DIRECTION ( 'NONE',  ( 1.000000000000000000, 0.0000000000000000000, 0.0000000000000000000 ) ) ;
#123 = PRODUCT_DEFINITION_FORMATION_WITH_SPECIFIED_SOURCE ( 'ANY', '', #20, .NOT_KNOWN. ) ;
#124 = COLOUR_RGB ( '',0.7921568627450980005, 0.8196078431372548767, 0.9333333333333333481 ) ;
#125 = DIRECTION ( 'NONE',  ( 1.000000000000000000, 0.0000000000000000000, 0.0000000000000000000 ) ) ;
#126 = CLOSED_SHELL ( 'NONE', ( #160, #189, #177, #47 ) ) ;
#127 =( NAMED_UNIT ( * ) SI_UNIT ( $, .STERADIAN. ) SOLID_ANGLE_UNIT ( ) );
#128 = EDGE_LOOP ( 'NONE', ( #62 ) ) ;
#129 = STYLED_ITEM ( 'NONE', ( #99 ), #87 ) ;
#130 = SURFACE_SIDE_STYLE ('',( #194 ) ) ;
#131 = AXIS2_PLACEMENT_3D ( 'NONE', #37, #77, #46 ) ;
#132 = DIRECTION ( 'NONE',  ( 0.0000000000000000000, 0.0000000000000000000, 1.000000000000000000 ) ) ;
#133 =( GEOMETRIC_REPRESENTATION_CONTEXT ( 3 ) GLOBAL_UNCERTAINTY_ASSIGNED_CONTEXT ( ( #42 ) ) GLOBAL_UNIT_ASSIGNED_CONTEXT ( ( #41, #185, #152 ) ) REPRESENTATION_CONTEXT ( 'NONE', 'WORKASPACE' ) );
#134 =( LENGTH_UNIT ( ) NAMED_UNIT ( * ) SI_UNIT ( .MILLI., .METRE. ) );
#135 = FILL_AREA_STYLE ('',( #6 ) ) ;
#136 = SHAPE_DEFINITION_REPRESENTATION ( #164, #76 ) ;
#137 = EDGE_LOOP ( 'NONE', ( #167 ) ) ;
#138 =( GEOMETRIC_REPRESENTATION_CONTEXT ( 3 ) GLOBAL_UNCERTAINTY_ASSIGNED_CONTEXT ( ( #198 ) ) GLOBAL_UNIT_ASSIGNED_CONTEXT ( ( #92, #211, #127 ) ) REPRESENTATION_CONTEXT ( 'NONE', 'WORKASPACE' ) );
#139 = DIRECTION ( 'NONE',  ( 0.0000000000000000000, 0.0000000000000000000, -1.000000000000000000 ) ) ;
#140 = CARTESIAN_POINT ( 'NONE',  ( 0.7700000000000073452, 0.0000000000000000000, -3.850000000000007638 ) ) ;
#141 = APPLICATION_PROTOCOL_DEFINITION ( 'draft international standard', 'automotive_design', 1998, #100 ) ;
#142 = CARTESIAN_POINT ( 'NONE',  ( 0.0000000000000000000, 0.0000000000000000000, 0.0000000000000000000 ) ) ;
#143 = PRESENTATION_STYLE_ASSIGNMENT (( #2 ) ) ;
#144 = FILL_AREA_STYLE_COLOUR ( '', #155 ) ;
#145 = CARTESIAN_POINT ( 'NONE',  ( 42.00000000000000711, 0.0000000000000000000, 0.0000000000000000000 ) ) ;
#146 = UNCERTAINTY_MEASURE_WITH_UNIT (LENGTH_MEASURE( 1.000000000000000082E-05 ), #118, 'distance_accuracy_value', 'NONE');
#147 = DIRECTION ( 'NONE',  ( 1.000000000000000000, 0.0000000000000000000, 0.0000000000000000000 ) ) ;
#148 = ORIENTED_EDGE ( 'NONE', *, *, #184, .F. ) ;
#149 = STYLED_ITEM ( 'NONE', ( #89 ), #27 ) ;
#150 = PRODUCT_DEFINITION ( 'UNKNOWN', '', #123, #80 ) ;
#151 = PRESENTATION_STYLE_ASSIGNMENT (( #192 ) ) ;
#152 =( NAMED_UNIT ( * ) SI_UNIT ( $, .STERADIAN. ) SOLID_ANGLE_UNIT ( ) );
#153 = PRESENTATION_LAYER_ASSIGNMENT (  '', '', ( #84 ) ) ;
#154 = FACE_OUTER_BOUND ( 'NONE', #137, .T. ) ;
#155 = COLOUR_RGB ( '',0.7921568627450980005, 0.8196078431372548767, 0.9333333333333333481 ) ;
#156 = DIRECTION ( 'NONE',  ( 0.0000000000000000000, 0.0000000000000000000, -1.000000000000000000 ) ) ;
#157 = EDGE_CURVE ( 'NONE', #207, #207, #57, .T. ) ;
#158 = DIRECTION ( 'NONE',  ( -1.000000000000000000, -0.0000000000000000000, -0.0000000000000000000 ) ) ;
#159 = STYLED_ITEM ( 'NONE', ( #143 ), #28 ) ;
#160 = ADVANCED_FACE ( 'NONE', ( #52, #5 ), #163, .T. ) ;
#161 = AXIS2_PLACEMENT_3D ( 'NONE', #116, #171, #58 ) ;
#162 = SURFACE_STYLE_USAGE ( .BOTH. , #73 ) ;
#163 = CYLINDRICAL_SURFACE ( 'NONE', #161, 3.850000000000007638 ) ;
#164 = PRODUCT_DEFINITION_SHAPE ( 'NONE', 'NONE',  #150 ) ;
#165 = AXIS2_PLACEMENT_3D ( 'NONE', #51, #8, #31 ) ;
#166 = UNCERTAINTY_MEASURE_WITH_UNIT (LENGTH_MEASURE( 1.000000000000000082E-05 ), #91, 'distance_accuracy_value', 'NONE');
#167 = ORIENTED_EDGE ( 'NONE', *, *, #201, .T. ) ;
#168 = CARTESIAN_POINT ( 'NONE',  ( 0.0000000000000000000, 0.0000000000000000000, 0.0000000000000000000 ) ) ;
#169 = EDGE_CURVE ( 'NONE', #13, #13, #32, .T. ) ;
#170 = FACE_BOUND ( 'NONE', #23, .T. ) ;
#171 = DIRECTION ( 'NONE',  ( -1.000000000000000000, -0.0000000000000000000, -0.0000000000000000000 ) ) ;
#172 = FILL_AREA_STYLE_COLOUR ( '', #56 ) ;
#173 = AXIS2_PLACEMENT_3D ( 'NONE', #104, #210, #139 ) ;
#174 = FACE_OUTER_BOUND ( 'NONE', #9, .T. ) ;
#175 = PLANE ( 'NONE',  #49 ) ;
#176 = CARTESIAN_POINT ( 'NONE',  ( 115.4052777848635571, 0.0000000000000000000, 0.0000000000000000000 ) ) ;
#177 = ADVANCED_FACE ( 'NONE', ( #61, #170 ), #101, .T. ) ;
#178 =( NAMED_UNIT ( * ) SI_UNIT ( $, .STERADIAN. ) SOLID_ANGLE_UNIT ( ) );
#179 = PRODUCT_CONTEXT ( 'NONE', #100, 'mechanical' ) ;
#180 = MECHANICAL_DESIGN_GEOMETRIC_PRESENTATION_REPRESENTATION (  '', ( #84 ), #113 ) ;
#181 =( LENGTH_UNIT ( ) NAMED_UNIT ( * ) SI_UNIT ( .MILLI., .METRE. ) );
#182 = FILL_AREA_STYLE ('',( #197 ) ) ;
#183 = EDGE_LOOP ( 'NONE', ( #148 ) ) ;
#184 = EDGE_CURVE ( 'NONE', #195, #195, #10, .T. ) ;
#185 =( NAMED_UNIT ( * ) PLANE_ANGLE_UNIT ( ) SI_UNIT ( $, .RADIAN. ) );
#186 = ORIENTED_EDGE ( 'NONE', *, *, #157, .T. ) ;
#187 = FILL_AREA_STYLE ('',( #172 ) ) ;
#188 = SURFACE_SIDE_STYLE ('',( #44 ) ) ;
#189 = ADVANCED_FACE ( 'NONE', ( #64 ), #88, .F. ) ;
#190 = EDGE_CURVE ( 'NONE', #18, #18, #36, .T. ) ;
#191 = SURFACE_SIDE_STYLE ('',( #199 ) ) ;
#192 = SURFACE_STYLE_USAGE ( .BOTH. , #130 ) ;
#193 = DIRECTION ( 'NONE',  ( 0.0000000000000000000, 0.0000000000000000000, -1.000000000000000000 ) ) ;
#194 = SURFACE_STYLE_FILL_AREA ( #187 ) ;
#195 = VERTEX_POINT ( 'NONE', #200 ) ;
#196 = AXIS2_PLACEMENT_3D ( 'NONE', #86, #122, #78 ) ;
#197 = FILL_AREA_STYLE_COLOUR ( '', #1 ) ;
#198 = UNCERTAINTY_MEASURE_WITH_UNIT (LENGTH_MEASURE( 1.000000000000000082E-05 ), #92, 'distance_accuracy_value', 'NONE');
#199 = SURFACE_STYLE_FILL_AREA ( #135 ) ;
#200 = CARTESIAN_POINT ( 'NONE',  ( 42.00000000000000711, 0.0000000000000000000, -3.850000000000007638 ) ) ;
#201 = EDGE_CURVE ( 'NONE', #14, #14, #11, .T. ) ;
#202 = MECHANICAL_DESIGN_GEOMETRIC_PRESENTATION_REPRESENTATION (  '', ( #81 ), #133 ) ;
#203 = PRESENTATION_LAYER_ASSIGNMENT (  '', '', ( #149 ) ) ;
#204 = CARTESIAN_POINT ( 'NONE',  ( -2.357445088358654757E-16, 0.0000000000000000000, -3.079999999999999183 ) ) ;
#205 = ORIENTED_EDGE ( 'NONE', *, *, #169, .T. ) ;
#206 =( NAMED_UNIT ( * ) PLANE_ANGLE_UNIT ( ) SI_UNIT ( $, .RADIAN. ) );
#207 = VERTEX_POINT ( 'NONE', #204 ) ;
#208 =( NAMED_UNIT ( * ) PLANE_ANGLE_UNIT ( ) SI_UNIT ( $, .RADIAN. ) );
#209 =( GEOMETRIC_REPRESENTATION_CONTEXT ( 3 ) GLOBAL_UNCERTAINTY_ASSIGNED_CONTEXT ( ( #212 ) ) GLOBAL_UNIT_ASSIGNED_CONTEXT ( ( #134, #206, #114 ) ) REPRESENTATION_CONTEXT ( 'NONE', 'WORKASPACE' ) );
#210 = DIRECTION ( 'NONE',  ( 1.000000000000000000, 0.0000000000000000000, 0.0000000000000000000 ) ) ;
#211 =( NAMED_UNIT ( * ) PLANE_ANGLE_UNIT ( ) SI_UNIT ( $, .RADIAN. ) );
#212 = UNCERTAINTY_MEASURE_WITH_UNIT (LENGTH_MEASURE( 1.000000000000000082E-05 ), #134, 'distance_accuracy_value', 'NONE');
#213 = COLOUR_RGB ( '',1.000000000000000000, 1.000000000000000000, 0.0000000000000000000 ) ;
ENDSEC;
END-ISO-10303-21;
