ISO-10303-21;
HEADER;
FILE_DESCRIPTION (( 'STEP AP214' ),
    '1' );
FILE_NAME ('03-1684.STEP',
    '2021-10-01T05:38:29',
    ( 'USER' ),
    ( '' ),
    'SwSTEP 2.0',
    'SolidWorks 2018',
    '' );
FILE_SCHEMA (( 'AUTOMOTIVE_DESIGN' ));
ENDSEC;

DATA;
#1 = FACE_OUTER_BOUND ( 'NONE', #129, .T. ) ;
#2 = DIRECTION ( 'NONE',  ( 0.0000000000000000000, 0.0000000000000000000, -1.000000000000000000 ) ) ;
#3 = ORIENTED_EDGE ( 'NONE', *, *, #40, .T. ) ;
#4 = PLANE ( 'NONE',  #7 ) ;
#5 = ORIENTED_EDGE ( 'NONE', *, *, #25, .T. ) ;
#6 = DIRECTION ( 'NONE',  ( 0.0000000000000000000, 0.0000000000000000000, -1.000000000000000000 ) ) ;
#7 = AXIS2_PLACEMENT_3D ( 'NONE', #27, #206, #103 ) ;
#8 = CYLINDRICAL_SURFACE ( 'NONE', #38, 3.900000000000006573 ) ;
#9 = ORIENTED_EDGE ( 'NONE', *, *, #211, .F. ) ;
#10 = FACE_OUTER_BOUND ( 'NONE', #107, .T. ) ;
#11 = CIRCLE ( 'NONE', #62, 3.119999999999997886 ) ;
#12 = EDGE_CURVE ( 'NONE', #29, #29, #150, .T. ) ;
#13 = SURFACE_STYLE_FILL_AREA ( #148 ) ;
#14 = PRESENTATION_STYLE_ASSIGNMENT (( #110 ) ) ;
#15 =( GEOMETRIC_REPRESENTATION_CONTEXT ( 3 ) GLOBAL_UNCERTAINTY_ASSIGNED_CONTEXT ( ( #70 ) ) GLOBAL_UNIT_ASSIGNED_CONTEXT ( ( #76, #160, #145 ) ) REPRESENTATION_CONTEXT ( 'NONE', 'WORKASPACE' ) );
#16 = ORIENTED_EDGE ( 'NONE', *, *, #40, .F. ) ;
#17 = SURFACE_STYLE_USAGE ( .BOTH. , #93 ) ;
#18 = DIRECTION ( 'NONE',  ( 0.0000000000000000000, 0.0000000000000000000, 1.000000000000000000 ) ) ;
#19 = ADVANCED_FACE ( 'NONE', ( #175 ), #4, .F. ) ;
#20 = DIRECTION ( 'NONE',  ( 1.000000000000000000, 0.0000000000000000000, 0.0000000000000000000 ) ) ;
#21 = PRESENTATION_LAYER_ASSIGNMENT (  '', '', ( #108 ) ) ;
#22 = DIRECTION ( 'NONE',  ( 0.0000000000000000000, 0.0000000000000000000, -1.000000000000000000 ) ) ;
#23 = DIRECTION ( 'NONE',  ( -1.000000000000000000, -0.0000000000000000000, -0.0000000000000000000 ) ) ;
#24 = DIRECTION ( 'NONE',  ( 1.000000000000000000, 0.0000000000000000000, 0.0000000000000000000 ) ) ;
#25 = EDGE_CURVE ( 'NONE', #31, #31, #43, .T. ) ;
#26 = PRESENTATION_STYLE_ASSIGNMENT (( #30 ) ) ;
#27 = CARTESIAN_POINT ( 'NONE',  ( -2.388061258337339136E-16, 3.899999999999999467, 0.0000000000000000000 ) ) ;
#28 = AXIS2_PLACEMENT_3D ( 'NONE', #60, #24, #116 ) ;
#29 = VERTEX_POINT ( 'NONE', #210 ) ;
#30 = SURFACE_STYLE_USAGE ( .BOTH. , #120 ) ;
#31 = VERTEX_POINT ( 'NONE', #155 ) ;
#32 = FACE_BOUND ( 'NONE', #97, .T. ) ;
#33 = AXIS2_PLACEMENT_3D ( 'NONE', #96, #154, #140 ) ;
#34 = EDGE_LOOP ( 'NONE', ( #74 ) ) ;
#35 = PLANE ( 'NONE',  #162 ) ;
#36 = CIRCLE ( 'NONE', #149, 3.900000000000014122 ) ;
#37 = ADVANCED_BREP_SHAPE_REPRESENTATION ( '03-1684', ( #161, #102, #199 ), #166 ) ;
#38 = AXIS2_PLACEMENT_3D ( 'NONE', #135, #42, #85 ) ;
#39 = ADVANCED_FACE ( 'NONE', ( #95 ), #127, .T. ) ;
#40 = EDGE_CURVE ( 'NONE', #57, #57, #125, .T. ) ;
#41 = UNCERTAINTY_MEASURE_WITH_UNIT (LENGTH_MEASURE( 1.000000000000000082E-05 ), #171, 'distance_accuracy_value', 'NONE');
#42 = DIRECTION ( 'NONE',  ( -1.000000000000000000, -0.0000000000000000000, -0.0000000000000000000 ) ) ;
#43 = CIRCLE ( 'NONE', #33, 3.900000000000006573 ) ;
#44 = DIRECTION ( 'NONE',  ( 1.000000000000000000, 0.0000000000000000000, 0.0000000000000000000 ) ) ;
#45 =( GEOMETRIC_REPRESENTATION_CONTEXT ( 3 ) GLOBAL_UNCERTAINTY_ASSIGNED_CONTEXT ( ( #75 ) ) GLOBAL_UNIT_ASSIGNED_CONTEXT ( ( #191, #72, #198 ) ) REPRESENTATION_CONTEXT ( 'NONE', 'WORKASPACE' ) );
#46 = COLOUR_RGB ( '',0.7921568627450980005, 0.8196078431372548767, 0.9333333333333333481 ) ;
#47 =( NAMED_UNIT ( * ) PLANE_ANGLE_UNIT ( ) SI_UNIT ( $, .RADIAN. ) );
#48 = DIRECTION ( 'NONE',  ( 1.000000000000000000, 0.0000000000000000000, 0.0000000000000000000 ) ) ;
#49 = ORIENTED_EDGE ( 'NONE', *, *, #12, .T. ) ;
#50 = FACE_OUTER_BOUND ( 'NONE', #159, .T. ) ;
#51 = FACE_OUTER_BOUND ( 'NONE', #34, .T. ) ;
#52 = SURFACE_STYLE_FILL_AREA ( #189 ) ;
#53 = COLOUR_RGB ( '',1.000000000000000000, 1.000000000000000000, 0.0000000000000000000 ) ;
#54 = FACE_OUTER_BOUND ( 'NONE', #144, .T. ) ;
#55 = EDGE_LOOP ( 'NONE', ( #87 ) ) ;
#56 = CONICAL_SURFACE ( 'NONE', #86, 3.119999999999997886, 0.7853981633974495002 ) ;
#57 = VERTEX_POINT ( 'NONE', #183 ) ;
#58 =( NAMED_UNIT ( * ) SI_UNIT ( $, .STERADIAN. ) SOLID_ANGLE_UNIT ( ) );
#59 = UNCERTAINTY_MEASURE_WITH_UNIT (LENGTH_MEASURE( 1.000000000000000082E-05 ), #167, 'distance_accuracy_value', 'NONE');
#60 = CARTESIAN_POINT ( 'NONE',  ( 0.7800000000000070211, 0.0000000000000000000, 0.0000000000000000000 ) ) ;
#61 = VERTEX_POINT ( 'NONE', #203 ) ;
#62 = AXIS2_PLACEMENT_3D ( 'NONE', #118, #137, #22 ) ;
#63 = VERTEX_POINT ( 'NONE', #65 ) ;
#64 = ADVANCED_FACE ( 'NONE', ( #84, #79 ), #112, .T. ) ;
#65 = CARTESIAN_POINT ( 'NONE',  ( -2.388061258337339136E-16, 0.0000000000000000000, -3.119999999999997886 ) ) ;
#66 =( NAMED_UNIT ( * ) PLANE_ANGLE_UNIT ( ) SI_UNIT ( $, .RADIAN. ) );
#67 = STYLED_ITEM ( 'NONE', ( #14 ), #161 ) ;
#68 = FILL_AREA_STYLE ('',( #165 ) ) ;
#69 = DIRECTION ( 'NONE',  ( -1.000000000000000000, -0.0000000000000000000, -0.0000000000000000000 ) ) ;
#70 = UNCERTAINTY_MEASURE_WITH_UNIT (LENGTH_MEASURE( 1.000000000000000082E-05 ), #76, 'distance_accuracy_value', 'NONE');
#71 = APPLICATION_CONTEXT ( 'automotive_design' ) ;
#72 =( NAMED_UNIT ( * ) PLANE_ANGLE_UNIT ( ) SI_UNIT ( $, .RADIAN. ) );
#73 = PRESENTATION_LAYER_ASSIGNMENT (  '', '', ( #67 ) ) ;
#74 = ORIENTED_EDGE ( 'NONE', *, *, #211, .T. ) ;
#75 = UNCERTAINTY_MEASURE_WITH_UNIT (LENGTH_MEASURE( 1.000000000000000082E-05 ), #191, 'distance_accuracy_value', 'NONE');
#76 =( LENGTH_UNIT ( ) NAMED_UNIT ( * ) SI_UNIT ( .MILLI., .METRE. ) );
#77 = MECHANICAL_DESIGN_GEOMETRIC_PRESENTATION_REPRESENTATION (  '', ( #132 ), #45 ) ;
#78 = PRESENTATION_STYLE_ASSIGNMENT (( #17 ) ) ;
#79 = FACE_OUTER_BOUND ( 'NONE', #119, .T. ) ;
#80 = CARTESIAN_POINT ( 'NONE',  ( 0.0000000000000000000, 0.0000000000000000000, 0.0000000000000000000 ) ) ;
#81 = MECHANICAL_DESIGN_GEOMETRIC_PRESENTATION_REPRESENTATION (  '', ( #67 ), #109 ) ;
#82 = DIRECTION ( 'NONE',  ( 0.0000000000000000000, 0.0000000000000000000, -1.000000000000000000 ) ) ;
#83 = FILL_AREA_STYLE_COLOUR ( '', #187 ) ;
#84 = FACE_OUTER_BOUND ( 'NONE', #168, .T. ) ;
#85 = DIRECTION ( 'NONE',  ( 0.0000000000000000000, 0.0000000000000000000, 1.000000000000000000 ) ) ;
#86 = AXIS2_PLACEMENT_3D ( 'NONE', #136, #44, #2 ) ;
#87 = ORIENTED_EDGE ( 'NONE', *, *, #128, .T. ) ;
#88 = SURFACE_STYLE_FILL_AREA ( #90 ) ;
#89 = PRODUCT_DEFINITION_SHAPE ( 'NONE', 'NONE',  #163 ) ;
#90 = FILL_AREA_STYLE ('',( #141 ) ) ;
#91 = CLOSED_SHELL ( 'NONE', ( #64, #19, #192, #133 ) ) ;
#92 = PRESENTATION_LAYER_ASSIGNMENT (  '', '', ( #105 ) ) ;
#93 = SURFACE_SIDE_STYLE ('',( #52 ) ) ;
#94 = PRESENTATION_STYLE_ASSIGNMENT (( #122 ) ) ;
#95 = FACE_OUTER_BOUND ( 'NONE', #176, .T. ) ;
#96 = CARTESIAN_POINT ( 'NONE',  ( 42.00000000000000711, 0.0000000000000000000, 0.0000000000000000000 ) ) ;
#97 = EDGE_LOOP ( 'NONE', ( #126 ) ) ;
#98 =( LENGTH_UNIT ( ) NAMED_UNIT ( * ) SI_UNIT ( .MILLI., .METRE. ) );
#99 =( NAMED_UNIT ( * ) SI_UNIT ( $, .STERADIAN. ) SOLID_ANGLE_UNIT ( ) );
#100 = COLOUR_RGB ( '',0.7921568627450980005, 0.8196078431372548767, 0.9333333333333333481 ) ;
#101 = SURFACE_SIDE_STYLE ('',( #88 ) ) ;
#102 = MANIFOLD_SOLID_BREP ( 'ºÐÇÒ2[2]', #114 ) ;
#103 = DIRECTION ( 'NONE',  ( 0.0000000000000000000, 0.0000000000000000000, -1.000000000000000000 ) ) ;
#104 = COLOUR_RGB ( '',0.7921568627450980005, 0.8196078431372548767, 0.9333333333333333481 ) ;
#105 = STYLED_ITEM ( 'NONE', ( #94 ), #37 ) ;
#106 = ORIENTED_EDGE ( 'NONE', *, *, #25, .F. ) ;
#107 = EDGE_LOOP ( 'NONE', ( #16 ) ) ;
#108 = STYLED_ITEM ( 'NONE', ( #151 ), #102 ) ;
#109 =( GEOMETRIC_REPRESENTATION_CONTEXT ( 3 ) GLOBAL_UNCERTAINTY_ASSIGNED_CONTEXT ( ( #157 ) ) GLOBAL_UNIT_ASSIGNED_CONTEXT ( ( #147, #47, #138 ) ) REPRESENTATION_CONTEXT ( 'NONE', 'WORKASPACE' ) );
#110 = SURFACE_STYLE_USAGE ( .BOTH. , #131 ) ;
#111 = UNCERTAINTY_MEASURE_WITH_UNIT (LENGTH_MEASURE( 1.000000000000000082E-05 ), #98, 'distance_accuracy_value', 'NONE');
#112 = CYLINDRICAL_SURFACE ( 'NONE', #146, 3.900000000000006573 ) ;
#113 = ADVANCED_FACE ( 'NONE', ( #50, #51 ), #8, .T. ) ;
#114 = CLOSED_SHELL ( 'NONE', ( #177, #113, #39 ) ) ;
#115 = SURFACE_STYLE_FILL_AREA ( #139 ) ;
#116 = DIRECTION ( 'NONE',  ( 0.0000000000000000000, 0.0000000000000000000, -1.000000000000000000 ) ) ;
#117 = AXIS2_PLACEMENT_3D ( 'NONE', #158, #20, #82 ) ;
#118 = CARTESIAN_POINT ( 'NONE',  ( -2.388061258337339136E-16, 0.0000000000000000000, 0.0000000000000000000 ) ) ;
#119 = EDGE_LOOP ( 'NONE', ( #106 ) ) ;
#120 = SURFACE_SIDE_STYLE ('',( #115 ) ) ;
#121 = PRESENTATION_LAYER_ASSIGNMENT (  '', '', ( #209 ) ) ;
#122 = SURFACE_STYLE_USAGE ( .BOTH. , #101 ) ;
#123 = DIRECTION ( 'NONE',  ( 0.0000000000000000000, 0.0000000000000000000, 1.000000000000000000 ) ) ;
#124 = FILL_AREA_STYLE_COLOUR ( '', #46 ) ;
#125 = CIRCLE ( 'NONE', #28, 3.900000000000006573 ) ;
#126 = ORIENTED_EDGE ( 'NONE', *, *, #128, .F. ) ;
#127 = CONICAL_SURFACE ( 'NONE', #202, 2414.213562373067361, 1.178097245096168422 ) ;
#128 = EDGE_CURVE ( 'NONE', #63, #63, #11, .T. ) ;
#129 = EDGE_LOOP ( 'NONE', ( #164 ) ) ;
#130 = MECHANICAL_DESIGN_GEOMETRIC_PRESENTATION_REPRESENTATION (  '', ( #105 ), #15 ) ;
#131 = SURFACE_SIDE_STYLE ('',( #13 ) ) ;
#132 = STYLED_ITEM ( 'NONE', ( #78 ), #113 ) ;
#133 = ADVANCED_FACE ( 'NONE', ( #54 ), #207, .T. ) ;
#134 = CARTESIAN_POINT ( 'NONE',  ( 0.0000000000000000000, 0.0000000000000000000, 0.0000000000000000000 ) ) ;
#135 = CARTESIAN_POINT ( 'NONE',  ( 0.0000000000000000000, 0.0000000000000000000, 0.0000000000000000000 ) ) ;
#136 = CARTESIAN_POINT ( 'NONE',  ( -2.388061258337339136E-16, 0.0000000000000000000, 0.0000000000000000000 ) ) ;
#137 = DIRECTION ( 'NONE',  ( -1.000000000000000000, -0.0000000000000000000, -0.0000000000000000000 ) ) ;
#138 =( NAMED_UNIT ( * ) SI_UNIT ( $, .STERADIAN. ) SOLID_ANGLE_UNIT ( ) );
#139 = FILL_AREA_STYLE ('',( #83 ) ) ;
#140 = DIRECTION ( 'NONE',  ( 0.0000000000000000000, 0.0000000000000000000, -1.000000000000000000 ) ) ;
#141 = FILL_AREA_STYLE_COLOUR ( '', #104 ) ;
#142 = AXIS2_PLACEMENT_3D ( 'NONE', #156, #48, #6 ) ;
#143 = PRODUCT_RELATED_PRODUCT_CATEGORY ( 'part', '', ( #212 ) ) ;
#144 = EDGE_LOOP ( 'NONE', ( #5 ) ) ;
#145 =( NAMED_UNIT ( * ) SI_UNIT ( $, .STERADIAN. ) SOLID_ANGLE_UNIT ( ) );
#146 = AXIS2_PLACEMENT_3D ( 'NONE', #80, #23, #123 ) ;
#147 =( LENGTH_UNIT ( ) NAMED_UNIT ( * ) SI_UNIT ( .MILLI., .METRE. ) );
#148 = FILL_AREA_STYLE ('',( #124 ) ) ;
#149 = AXIS2_PLACEMENT_3D ( 'NONE', #170, #69, #18 ) ;
#150 = CIRCLE ( 'NONE', #142, 3.900000000000006573 ) ;
#151 = PRESENTATION_STYLE_ASSIGNMENT (( #195 ) ) ;
#152 = FILL_AREA_STYLE_COLOUR ( '', #53 ) ;
#153 = PRESENTATION_LAYER_ASSIGNMENT (  '', '', ( #132 ) ) ;
#154 = DIRECTION ( 'NONE',  ( 1.000000000000000000, 0.0000000000000000000, 0.0000000000000000000 ) ) ;
#155 = CARTESIAN_POINT ( 'NONE',  ( 42.00000000000000711, 0.0000000000000000000, -3.900000000000006573 ) ) ;
#156 = CARTESIAN_POINT ( 'NONE',  ( 42.00000000000000711, 0.0000000000000000000, 0.0000000000000000000 ) ) ;
#157 = UNCERTAINTY_MEASURE_WITH_UNIT (LENGTH_MEASURE( 1.000000000000000082E-05 ), #147, 'distance_accuracy_value', 'NONE');
#158 = CARTESIAN_POINT ( 'NONE',  ( 42.00000000000000711, 0.0000000000000000000, 0.0000000000000000000 ) ) ;
#159 = EDGE_LOOP ( 'NONE', ( #49 ) ) ;
#160 =( NAMED_UNIT ( * ) PLANE_ANGLE_UNIT ( ) SI_UNIT ( $, .RADIAN. ) );
#161 = MANIFOLD_SOLID_BREP ( 'ºÐÇÒ2[1]', #91 ) ;
#162 = AXIS2_PLACEMENT_3D ( 'NONE', #208, #196, #194 ) ;
#163 = PRODUCT_DEFINITION ( 'UNKNOWN', '', #174, #181 ) ;
#164 = ORIENTED_EDGE ( 'NONE', *, *, #12, .F. ) ;
#165 = FILL_AREA_STYLE_COLOUR ( '', #100 ) ;
#166 =( GEOMETRIC_REPRESENTATION_CONTEXT ( 3 ) GLOBAL_UNCERTAINTY_ASSIGNED_CONTEXT ( ( #59 ) ) GLOBAL_UNIT_ASSIGNED_CONTEXT ( ( #167, #66, #58 ) ) REPRESENTATION_CONTEXT ( 'NONE', 'WORKASPACE' ) );
#167 =( LENGTH_UNIT ( ) NAMED_UNIT ( * ) SI_UNIT ( .MILLI., .METRE. ) );
#168 = EDGE_LOOP ( 'NONE', ( #3 ) ) ;
#169 = PRODUCT_CONTEXT ( 'NONE', #173, 'mechanical' ) ;
#170 = CARTESIAN_POINT ( 'NONE',  ( 115.3845671067449103, 0.0000000000000000000, 0.0000000000000000000 ) ) ;
#171 =( LENGTH_UNIT ( ) NAMED_UNIT ( * ) SI_UNIT ( .MILLI., .METRE. ) );
#172 = DIRECTION ( 'NONE',  ( -1.000000000000000000, -0.0000000000000000000, -0.0000000000000000000 ) ) ;
#173 = APPLICATION_CONTEXT ( 'automotive_design' ) ;
#174 = PRODUCT_DEFINITION_FORMATION_WITH_SPECIFIED_SOURCE ( 'ANY', '', #212, .NOT_KNOWN. ) ;
#175 = FACE_OUTER_BOUND ( 'NONE', #55, .T. ) ;
#176 = EDGE_LOOP ( 'NONE', ( #9 ) ) ;
#177 = ADVANCED_FACE ( 'NONE', ( #1 ), #35, .F. ) ;
#178 = DIRECTION ( 'NONE',  ( 1.000000000000000000, 0.0000000000000000000, 0.0000000000000000000 ) ) ;
#179 = MECHANICAL_DESIGN_GEOMETRIC_PRESENTATION_REPRESENTATION (  '', ( #209 ), #205 ) ;
#180 = SURFACE_SIDE_STYLE ('',( #190 ) ) ;
#181 = PRODUCT_DEFINITION_CONTEXT ( 'detailed design', #71, 'design' ) ;
#182 = APPLICATION_PROTOCOL_DEFINITION ( 'draft international standard', 'automotive_design', 1998, #71 ) ;
#183 = CARTESIAN_POINT ( 'NONE',  ( 0.7800000000000070211, 0.0000000000000000000, -3.900000000000006573 ) ) ;
#184 =( NAMED_UNIT ( * ) PLANE_ANGLE_UNIT ( ) SI_UNIT ( $, .RADIAN. ) );
#185 = MECHANICAL_DESIGN_GEOMETRIC_PRESENTATION_REPRESENTATION (  '', ( #108 ), #193 ) ;
#186 = CARTESIAN_POINT ( 'NONE',  ( -883.0000000000000000, 0.0000000000000000000, 0.0000000000000000000 ) ) ;
#187 = COLOUR_RGB ( '',1.000000000000000000, 1.000000000000000000, 0.0000000000000000000 ) ;
#188 = APPLICATION_PROTOCOL_DEFINITION ( 'draft international standard', 'automotive_design', 1998, #173 ) ;
#189 = FILL_AREA_STYLE ('',( #152 ) ) ;
#190 = SURFACE_STYLE_FILL_AREA ( #68 ) ;
#191 =( LENGTH_UNIT ( ) NAMED_UNIT ( * ) SI_UNIT ( .MILLI., .METRE. ) );
#192 = ADVANCED_FACE ( 'NONE', ( #10, #32 ), #56, .T. ) ;
#193 =( GEOMETRIC_REPRESENTATION_CONTEXT ( 3 ) GLOBAL_UNCERTAINTY_ASSIGNED_CONTEXT ( ( #111 ) ) GLOBAL_UNIT_ASSIGNED_CONTEXT ( ( #98, #197, #99 ) ) REPRESENTATION_CONTEXT ( 'NONE', 'WORKASPACE' ) );
#194 = DIRECTION ( 'NONE',  ( 0.0000000000000000000, 0.0000000000000000000, -1.000000000000000000 ) ) ;
#195 = SURFACE_STYLE_USAGE ( .BOTH. , #180 ) ;
#196 = DIRECTION ( 'NONE',  ( 1.000000000000000000, 0.0000000000000000000, 0.0000000000000000000 ) ) ;
#197 =( NAMED_UNIT ( * ) PLANE_ANGLE_UNIT ( ) SI_UNIT ( $, .RADIAN. ) );
#198 =( NAMED_UNIT ( * ) SI_UNIT ( $, .STERADIAN. ) SOLID_ANGLE_UNIT ( ) );
#199 = AXIS2_PLACEMENT_3D ( 'NONE', #134, #213, #178 ) ;
#200 = SHAPE_DEFINITION_REPRESENTATION ( #89, #37 ) ;
#201 =( NAMED_UNIT ( * ) SI_UNIT ( $, .STERADIAN. ) SOLID_ANGLE_UNIT ( ) );
#202 = AXIS2_PLACEMENT_3D ( 'NONE', #186, #172, #204 ) ;
#203 = CARTESIAN_POINT ( 'NONE',  ( 115.3845671067449103, 0.0000000000000000000, 3.900000000000014122 ) ) ;
#204 = DIRECTION ( 'NONE',  ( 0.0000000000000000000, 0.0000000000000000000, 1.000000000000000000 ) ) ;
#205 =( GEOMETRIC_REPRESENTATION_CONTEXT ( 3 ) GLOBAL_UNCERTAINTY_ASSIGNED_CONTEXT ( ( #41 ) ) GLOBAL_UNIT_ASSIGNED_CONTEXT ( ( #171, #184, #201 ) ) REPRESENTATION_CONTEXT ( 'NONE', 'WORKASPACE' ) );
#206 = DIRECTION ( 'NONE',  ( 1.000000000000000000, 0.0000000000000000000, 0.0000000000000000000 ) ) ;
#207 = PLANE ( 'NONE',  #117 ) ;
#208 = CARTESIAN_POINT ( 'NONE',  ( 42.00000000000000711, 0.0000000000000000000, 0.0000000000000000000 ) ) ;
#209 = STYLED_ITEM ( 'NONE', ( #26 ), #39 ) ;
#210 = CARTESIAN_POINT ( 'NONE',  ( 42.00000000000000711, 0.0000000000000000000, -3.900000000000006573 ) ) ;
#211 = EDGE_CURVE ( 'NONE', #61, #61, #36, .T. ) ;
#212 = PRODUCT ( '03-1684', '03-1684', '', ( #169 ) ) ;
#213 = DIRECTION ( 'NONE',  ( 0.0000000000000000000, 0.0000000000000000000, 1.000000000000000000 ) ) ;
ENDSEC;
END-ISO-10303-21;
