ISO-10303-21;
HEADER;
FILE_DESCRIPTION (( 'STEP AP214' ),
    '1' );
FILE_NAME ('03-1685.STEP',
    '2021-10-01T05:38:48',
    ( 'USER' ),
    ( '' ),
    'SwSTEP 2.0',
    'SolidWorks 2018',
    '' );
FILE_SCHEMA (( 'AUTOMOTIVE_DESIGN' ));
ENDSEC;

DATA;
#1 = FACE_BOUND ( 'NONE', #93, .T. ) ;
#2 = DIRECTION ( 'NONE',  ( 0.0000000000000000000, 0.0000000000000000000, -1.000000000000000000 ) ) ;
#3 =( NAMED_UNIT ( * ) PLANE_ANGLE_UNIT ( ) SI_UNIT ( $, .RADIAN. ) );
#4 =( LENGTH_UNIT ( ) NAMED_UNIT ( * ) SI_UNIT ( .MILLI., .METRE. ) );
#5 = ADVANCED_FACE ( 'NONE', ( #6, #1 ), #41, .T. ) ;
#6 = FACE_OUTER_BOUND ( 'NONE', #63, .T. ) ;
#7 = EDGE_LOOP ( 'NONE', ( #150 ) ) ;
#8 = SURFACE_STYLE_USAGE ( .BOTH. , #33 ) ;
#9 = DIRECTION ( 'NONE',  ( 0.0000000000000000000, 0.0000000000000000000, 1.000000000000000000 ) ) ;
#10 = DIRECTION ( 'NONE',  ( -1.000000000000000000, -0.0000000000000000000, -0.0000000000000000000 ) ) ;
#11 = AXIS2_PLACEMENT_3D ( 'NONE', #97, #206, #2 ) ;
#12 = FACE_OUTER_BOUND ( 'NONE', #14, .T. ) ;
#13 = DIRECTION ( 'NONE',  ( 0.0000000000000000000, 0.0000000000000000000, 1.000000000000000000 ) ) ;
#14 = EDGE_LOOP ( 'NONE', ( #110 ) ) ;
#15 = ORIENTED_EDGE ( 'NONE', *, *, #144, .T. ) ;
#16 = DIRECTION ( 'NONE',  ( 1.000000000000000000, 0.0000000000000000000, 0.0000000000000000000 ) ) ;
#17 = ORIENTED_EDGE ( 'NONE', *, *, #46, .T. ) ;
#18 = CIRCLE ( 'NONE', #11, 3.950000000000007283 ) ;
#19 = ORIENTED_EDGE ( 'NONE', *, *, #31, .F. ) ;
#20 = EDGE_CURVE ( 'NONE', #68, #68, #40, .T. ) ;
#21 = ORIENTED_EDGE ( 'NONE', *, *, #31, .T. ) ;
#22 = CARTESIAN_POINT ( 'NONE',  ( 115.3638564286262636, 0.0000000000000000000, 0.0000000000000000000 ) ) ;
#23 = FILL_AREA_STYLE_COLOUR ( '', #173 ) ;
#24 = EDGE_LOOP ( 'NONE', ( #17 ) ) ;
#25 = FILL_AREA_STYLE ('',( #39 ) ) ;
#26 = CARTESIAN_POINT ( 'NONE',  ( -2.418677428316023515E-16, 3.950000000000001066, 0.0000000000000000000 ) ) ;
#27 = CARTESIAN_POINT ( 'NONE',  ( 0.7899999999999953726, 0.0000000000000000000, -3.950000000000007283 ) ) ;
#28 = SURFACE_SIDE_STYLE ('',( #48 ) ) ;
#29 = CIRCLE ( 'NONE', #62, 3.950000000000007283 ) ;
#30 = CARTESIAN_POINT ( 'NONE',  ( 115.3638564286262636, 0.0000000000000000000, 3.950000000000014388 ) ) ;
#31 = EDGE_CURVE ( 'NONE', #87, #87, #29, .T. ) ;
#32 = CARTESIAN_POINT ( 'NONE',  ( 42.00000000000000711, 0.0000000000000000000, 0.0000000000000000000 ) ) ;
#33 = SURFACE_SIDE_STYLE ('',( #86 ) ) ;
#34 = EDGE_LOOP ( 'NONE', ( #15 ) ) ;
#35 = DIRECTION ( 'NONE',  ( 0.0000000000000000000, 0.0000000000000000000, -1.000000000000000000 ) ) ;
#36 = APPLICATION_PROTOCOL_DEFINITION ( 'draft international standard', 'automotive_design', 1998, #77 ) ;
#37 = VERTEX_POINT ( 'NONE', #27 ) ;
#38 = CIRCLE ( 'NONE', #42, 3.160000000000009912 ) ;
#39 = FILL_AREA_STYLE_COLOUR ( '', #71 ) ;
#40 = CIRCLE ( 'NONE', #104, 3.950000000000014388 ) ;
#41 = CONICAL_SURFACE ( 'NONE', #155, 3.160000000000009912, 0.7853981633974492782 ) ;
#42 = AXIS2_PLACEMENT_3D ( 'NONE', #167, #106, #83 ) ;
#43 = EDGE_LOOP ( 'NONE', ( #139 ) ) ;
#44 = FILL_AREA_STYLE ('',( #58 ) ) ;
#45 =( GEOMETRIC_REPRESENTATION_CONTEXT ( 3 ) GLOBAL_UNCERTAINTY_ASSIGNED_CONTEXT ( ( #153 ) ) GLOBAL_UNIT_ASSIGNED_CONTEXT ( ( #148, #171, #109 ) ) REPRESENTATION_CONTEXT ( 'NONE', 'WORKASPACE' ) );
#46 = EDGE_CURVE ( 'NONE', #80, #80, #18, .T. ) ;
#47 = CARTESIAN_POINT ( 'NONE',  ( -883.0000000000000000, 0.0000000000000000000, 0.0000000000000000000 ) ) ;
#48 = SURFACE_STYLE_FILL_AREA ( #25 ) ;
#49 = CARTESIAN_POINT ( 'NONE',  ( 0.7899999999999953726, 0.0000000000000000000, 0.0000000000000000000 ) ) ;
#50 = FILL_AREA_STYLE ('',( #199 ) ) ;
#51 = FACE_OUTER_BOUND ( 'NONE', #59, .T. ) ;
#52 = DIRECTION ( 'NONE',  ( -1.000000000000000000, -0.0000000000000000000, -0.0000000000000000000 ) ) ;
#53 =( LENGTH_UNIT ( ) NAMED_UNIT ( * ) SI_UNIT ( .MILLI., .METRE. ) );
#54 = APPLICATION_PROTOCOL_DEFINITION ( 'draft international standard', 'automotive_design', 1998, #82 ) ;
#55 = CLOSED_SHELL ( 'NONE', ( #141, #188, #101 ) ) ;
#56 = PRESENTATION_STYLE_ASSIGNMENT (( #129 ) ) ;
#57 = ORIENTED_EDGE ( 'NONE', *, *, #144, .F. ) ;
#58 = FILL_AREA_STYLE_COLOUR ( '', #151 ) ;
#59 = EDGE_LOOP ( 'NONE', ( #21 ) ) ;
#60 = DIRECTION ( 'NONE',  ( 1.000000000000000000, 0.0000000000000000000, 0.0000000000000000000 ) ) ;
#61 = DIRECTION ( 'NONE',  ( -1.000000000000000000, -0.0000000000000000000, -0.0000000000000000000 ) ) ;
#62 = AXIS2_PLACEMENT_3D ( 'NONE', #162, #60, #213 ) ;
#63 = EDGE_LOOP ( 'NONE', ( #57 ) ) ;
#64 =( NAMED_UNIT ( * ) SI_UNIT ( $, .STERADIAN. ) SOLID_ANGLE_UNIT ( ) );
#65 = UNCERTAINTY_MEASURE_WITH_UNIT (LENGTH_MEASURE( 1.000000000000000082E-05 ), #166, 'distance_accuracy_value', 'NONE');
#66 = FACE_OUTER_BOUND ( 'NONE', #24, .T. ) ;
#67 = EDGE_CURVE ( 'NONE', #138, #138, #38, .T. ) ;
#68 = VERTEX_POINT ( 'NONE', #30 ) ;
#69 = CYLINDRICAL_SURFACE ( 'NONE', #121, 3.950000000000007283 ) ;
#70 = AXIS2_PLACEMENT_3D ( 'NONE', #112, #72, #76 ) ;
#71 = COLOUR_RGB ( '',1.000000000000000000, 1.000000000000000000, 0.0000000000000000000 ) ;
#72 = DIRECTION ( 'NONE',  ( 1.000000000000000000, 0.0000000000000000000, 0.0000000000000000000 ) ) ;
#73 = PLANE ( 'NONE',  #70 ) ;
#74 = FACE_OUTER_BOUND ( 'NONE', #43, .T. ) ;
#75 = COLOUR_RGB ( '',0.7921568627450980005, 0.8196078431372548767, 0.9333333333333333481 ) ;
#76 = DIRECTION ( 'NONE',  ( 0.0000000000000000000, 0.0000000000000000000, -1.000000000000000000 ) ) ;
#77 = APPLICATION_CONTEXT ( 'automotive_design' ) ;
#78 =( NAMED_UNIT ( * ) SI_UNIT ( $, .STERADIAN. ) SOLID_ANGLE_UNIT ( ) );
#79 = ADVANCED_FACE ( 'NONE', ( #51 ), #133, .T. ) ;
#80 = VERTEX_POINT ( 'NONE', #143 ) ;
#81 = CARTESIAN_POINT ( 'NONE',  ( -2.418677428316023515E-16, 0.0000000000000000000, -3.160000000000009912 ) ) ;
#82 = APPLICATION_CONTEXT ( 'automotive_design' ) ;
#83 = DIRECTION ( 'NONE',  ( 0.0000000000000000000, 0.0000000000000000000, -1.000000000000000000 ) ) ;
#84 = SURFACE_SIDE_STYLE ('',( #125 ) ) ;
#85 = PRESENTATION_LAYER_ASSIGNMENT (  '', '', ( #198 ) ) ;
#86 = SURFACE_STYLE_FILL_AREA ( #158 ) ;
#87 = VERTEX_POINT ( 'NONE', #181 ) ;
#88 = SURFACE_STYLE_FILL_AREA ( #44 ) ;
#89 = MECHANICAL_DESIGN_GEOMETRIC_PRESENTATION_REPRESENTATION (  '', ( #198 ), #180 ) ;
#90 =( NAMED_UNIT ( * ) PLANE_ANGLE_UNIT ( ) SI_UNIT ( $, .RADIAN. ) );
#91 = CYLINDRICAL_SURFACE ( 'NONE', #183, 3.950000000000007283 ) ;
#92 = CARTESIAN_POINT ( 'NONE',  ( 0.0000000000000000000, 0.0000000000000000000, 0.0000000000000000000 ) ) ;
#93 = EDGE_LOOP ( 'NONE', ( #145 ) ) ;
#94 = STYLED_ITEM ( 'NONE', ( #196 ), #188 ) ;
#95 = CARTESIAN_POINT ( 'NONE',  ( 0.0000000000000000000, 0.0000000000000000000, 0.0000000000000000000 ) ) ;
#96 = DIRECTION ( 'NONE',  ( 1.000000000000000000, 0.0000000000000000000, 0.0000000000000000000 ) ) ;
#97 = CARTESIAN_POINT ( 'NONE',  ( 42.00000000000000711, 0.0000000000000000000, 0.0000000000000000000 ) ) ;
#98 = FILL_AREA_STYLE ('',( #23 ) ) ;
#99 = AXIS2_PLACEMENT_3D ( 'NONE', #49, #16, #169 ) ;
#100 = PRODUCT_DEFINITION_SHAPE ( 'NONE', 'NONE',  #163 ) ;
#101 = ADVANCED_FACE ( 'NONE', ( #126 ), #165, .T. ) ;
#102 =( NAMED_UNIT ( * ) PLANE_ANGLE_UNIT ( ) SI_UNIT ( $, .RADIAN. ) );
#103 = DIRECTION ( 'NONE',  ( 1.000000000000000000, 0.0000000000000000000, 0.0000000000000000000 ) ) ;
#104 = AXIS2_PLACEMENT_3D ( 'NONE', #22, #10, #13 ) ;
#105 =( NAMED_UNIT ( * ) SI_UNIT ( $, .STERADIAN. ) SOLID_ANGLE_UNIT ( ) );
#106 = DIRECTION ( 'NONE',  ( -1.000000000000000000, -0.0000000000000000000, -0.0000000000000000000 ) ) ;
#107 = SURFACE_STYLE_USAGE ( .BOTH. , #182 ) ;
#108 = AXIS2_PLACEMENT_3D ( 'NONE', #26, #191, #120 ) ;
#109 =( NAMED_UNIT ( * ) SI_UNIT ( $, .STERADIAN. ) SOLID_ANGLE_UNIT ( ) );
#110 = ORIENTED_EDGE ( 'NONE', *, *, #67, .T. ) ;
#111 = PRESENTATION_STYLE_ASSIGNMENT (( #107 ) ) ;
#112 = CARTESIAN_POINT ( 'NONE',  ( 42.00000000000000711, 0.0000000000000000000, 0.0000000000000000000 ) ) ;
#113 = MANIFOLD_SOLID_BREP ( 'ºÐÇÒ2[2]', #55 ) ;
#114 =( GEOMETRIC_REPRESENTATION_CONTEXT ( 3 ) GLOBAL_UNCERTAINTY_ASSIGNED_CONTEXT ( ( #131 ) ) GLOBAL_UNIT_ASSIGNED_CONTEXT ( ( #117, #102, #161 ) ) REPRESENTATION_CONTEXT ( 'NONE', 'WORKASPACE' ) );
#115 = DIRECTION ( 'NONE',  ( 0.0000000000000000000, 0.0000000000000000000, -1.000000000000000000 ) ) ;
#116 =( NAMED_UNIT ( * ) PLANE_ANGLE_UNIT ( ) SI_UNIT ( $, .RADIAN. ) );
#117 =( LENGTH_UNIT ( ) NAMED_UNIT ( * ) SI_UNIT ( .MILLI., .METRE. ) );
#118 = PRESENTATION_LAYER_ASSIGNMENT (  '', '', ( #128 ) ) ;
#119 = FACE_OUTER_BOUND ( 'NONE', #209, .T. ) ;
#120 = DIRECTION ( 'NONE',  ( 0.0000000000000000000, 0.0000000000000000000, -1.000000000000000000 ) ) ;
#121 = AXIS2_PLACEMENT_3D ( 'NONE', #190, #177, #205 ) ;
#122 = MECHANICAL_DESIGN_GEOMETRIC_PRESENTATION_REPRESENTATION (  '', ( #94 ), #114 ) ;
#123 = EDGE_LOOP ( 'NONE', ( #164 ) ) ;
#124 = PRODUCT_CONTEXT ( 'NONE', #82, 'mechanical' ) ;
#125 = SURFACE_STYLE_FILL_AREA ( #50 ) ;
#126 = FACE_OUTER_BOUND ( 'NONE', #7, .T. ) ;
#127 = DIRECTION ( 'NONE',  ( 0.0000000000000000000, 0.0000000000000000000, 1.000000000000000000 ) ) ;
#128 = STYLED_ITEM ( 'NONE', ( #56 ), #195 ) ;
#129 = SURFACE_STYLE_USAGE ( .BOTH. , #201 ) ;
#130 = AXIS2_PLACEMENT_3D ( 'NONE', #47, #61, #127 ) ;
#131 = UNCERTAINTY_MEASURE_WITH_UNIT (LENGTH_MEASURE( 1.000000000000000082E-05 ), #117, 'distance_accuracy_value', 'NONE');
#132 = FACE_OUTER_BOUND ( 'NONE', #34, .T. ) ;
#133 = PLANE ( 'NONE',  #212 ) ;
#134 = PRESENTATION_STYLE_ASSIGNMENT (( #187 ) ) ;
#135 = PRESENTATION_LAYER_ASSIGNMENT (  '', '', ( #94 ) ) ;
#136 = PRODUCT ( '03-1685', '03-1685', '', ( #124 ) ) ;
#137 = DIRECTION ( 'NONE',  ( 1.000000000000000000, 0.0000000000000000000, 0.0000000000000000000 ) ) ;
#138 = VERTEX_POINT ( 'NONE', #81 ) ;
#139 = ORIENTED_EDGE ( 'NONE', *, *, #46, .F. ) ;
#140 = COLOUR_RGB ( '',1.000000000000000000, 1.000000000000000000, 0.0000000000000000000 ) ;
#141 = ADVANCED_FACE ( 'NONE', ( #74 ), #73, .F. ) ;
#142 = SURFACE_STYLE_FILL_AREA ( #98 ) ;
#143 = CARTESIAN_POINT ( 'NONE',  ( 42.00000000000000711, 0.0000000000000000000, -3.950000000000007283 ) ) ;
#144 = EDGE_CURVE ( 'NONE', #37, #37, #208, .T. ) ;
#145 = ORIENTED_EDGE ( 'NONE', *, *, #67, .F. ) ;
#146 = SURFACE_STYLE_USAGE ( .BOTH. , #84 ) ;
#147 = MANIFOLD_SOLID_BREP ( 'ºÐÇÒ2[1]', #197 ) ;
#148 =( LENGTH_UNIT ( ) NAMED_UNIT ( * ) SI_UNIT ( .MILLI., .METRE. ) );
#149 = MECHANICAL_DESIGN_GEOMETRIC_PRESENTATION_REPRESENTATION (  '', ( #128 ), #170 ) ;
#150 = ORIENTED_EDGE ( 'NONE', *, *, #20, .F. ) ;
#151 = COLOUR_RGB ( '',0.7921568627450980005, 0.8196078431372548767, 0.9333333333333333481 ) ;
#152 =( GEOMETRIC_REPRESENTATION_CONTEXT ( 3 ) GLOBAL_UNCERTAINTY_ASSIGNED_CONTEXT ( ( #189 ) ) GLOBAL_UNIT_ASSIGNED_CONTEXT ( ( #200, #3, #105 ) ) REPRESENTATION_CONTEXT ( 'NONE', 'WORKASPACE' ) );
#153 = UNCERTAINTY_MEASURE_WITH_UNIT (LENGTH_MEASURE( 1.000000000000000082E-05 ), #148, 'distance_accuracy_value', 'NONE');
#154 = SHAPE_DEFINITION_REPRESENTATION ( #100, #195 ) ;
#155 = AXIS2_PLACEMENT_3D ( 'NONE', #179, #103, #115 ) ;
#156 = PRODUCT_RELATED_PRODUCT_CATEGORY ( 'part', '', ( #136 ) ) ;
#157 = UNCERTAINTY_MEASURE_WITH_UNIT (LENGTH_MEASURE( 1.000000000000000082E-05 ), #4, 'distance_accuracy_value', 'NONE');
#158 = FILL_AREA_STYLE ('',( #203 ) ) ;
#159 = PRESENTATION_LAYER_ASSIGNMENT (  '', '', ( #194 ) ) ;
#160 = ADVANCED_FACE ( 'NONE', ( #12 ), #192, .F. ) ;
#161 =( NAMED_UNIT ( * ) SI_UNIT ( $, .STERADIAN. ) SOLID_ANGLE_UNIT ( ) );
#162 = CARTESIAN_POINT ( 'NONE',  ( 42.00000000000000711, 0.0000000000000000000, 0.0000000000000000000 ) ) ;
#163 = PRODUCT_DEFINITION ( 'UNKNOWN', '', #175, #193 ) ;
#164 = ORIENTED_EDGE ( 'NONE', *, *, #20, .T. ) ;
#165 = CONICAL_SURFACE ( 'NONE', #130, 2414.213562373071909, 1.178097245096169088 ) ;
#166 =( LENGTH_UNIT ( ) NAMED_UNIT ( * ) SI_UNIT ( .MILLI., .METRE. ) );
#167 = CARTESIAN_POINT ( 'NONE',  ( -2.418677428316023515E-16, 0.0000000000000000000, 0.0000000000000000000 ) ) ;
#168 =( GEOMETRIC_REPRESENTATION_CONTEXT ( 3 ) GLOBAL_UNCERTAINTY_ASSIGNED_CONTEXT ( ( #65 ) ) GLOBAL_UNIT_ASSIGNED_CONTEXT ( ( #166, #176, #78 ) ) REPRESENTATION_CONTEXT ( 'NONE', 'WORKASPACE' ) );
#169 = DIRECTION ( 'NONE',  ( 0.0000000000000000000, 0.0000000000000000000, -1.000000000000000000 ) ) ;
#170 =( GEOMETRIC_REPRESENTATION_CONTEXT ( 3 ) GLOBAL_UNCERTAINTY_ASSIGNED_CONTEXT ( ( #157 ) ) GLOBAL_UNIT_ASSIGNED_CONTEXT ( ( #4, #116, #178 ) ) REPRESENTATION_CONTEXT ( 'NONE', 'WORKASPACE' ) );
#171 =( NAMED_UNIT ( * ) PLANE_ANGLE_UNIT ( ) SI_UNIT ( $, .RADIAN. ) );
#172 = FACE_OUTER_BOUND ( 'NONE', #123, .T. ) ;
#173 = COLOUR_RGB ( '',0.7921568627450980005, 0.8196078431372548767, 0.9333333333333333481 ) ;
#174 = UNCERTAINTY_MEASURE_WITH_UNIT (LENGTH_MEASURE( 1.000000000000000082E-05 ), #53, 'distance_accuracy_value', 'NONE');
#175 = PRODUCT_DEFINITION_FORMATION_WITH_SPECIFIED_SOURCE ( 'ANY', '', #136, .NOT_KNOWN. ) ;
#176 =( NAMED_UNIT ( * ) PLANE_ANGLE_UNIT ( ) SI_UNIT ( $, .RADIAN. ) );
#177 = DIRECTION ( 'NONE',  ( -1.000000000000000000, -0.0000000000000000000, -0.0000000000000000000 ) ) ;
#178 =( NAMED_UNIT ( * ) SI_UNIT ( $, .STERADIAN. ) SOLID_ANGLE_UNIT ( ) );
#179 = CARTESIAN_POINT ( 'NONE',  ( -2.418677428316023515E-16, 0.0000000000000000000, 0.0000000000000000000 ) ) ;
#180 =( GEOMETRIC_REPRESENTATION_CONTEXT ( 3 ) GLOBAL_UNCERTAINTY_ASSIGNED_CONTEXT ( ( #174 ) ) GLOBAL_UNIT_ASSIGNED_CONTEXT ( ( #53, #90, #64 ) ) REPRESENTATION_CONTEXT ( 'NONE', 'WORKASPACE' ) );
#181 = CARTESIAN_POINT ( 'NONE',  ( 42.00000000000000711, 0.0000000000000000000, -3.950000000000007283 ) ) ;
#182 = SURFACE_SIDE_STYLE ('',( #88 ) ) ;
#183 = AXIS2_PLACEMENT_3D ( 'NONE', #95, #52, #9 ) ;
#184 = STYLED_ITEM ( 'NONE', ( #134 ), #101 ) ;
#185 = MECHANICAL_DESIGN_GEOMETRIC_PRESENTATION_REPRESENTATION (  '', ( #194 ), #152 ) ;
#186 = MECHANICAL_DESIGN_GEOMETRIC_PRESENTATION_REPRESENTATION (  '', ( #184 ), #45 ) ;
#187 = SURFACE_STYLE_USAGE ( .BOTH. , #28 ) ;
#188 = ADVANCED_FACE ( 'NONE', ( #66, #172 ), #91, .T. ) ;
#189 = UNCERTAINTY_MEASURE_WITH_UNIT (LENGTH_MEASURE( 1.000000000000000082E-05 ), #200, 'distance_accuracy_value', 'NONE');
#190 = CARTESIAN_POINT ( 'NONE',  ( 0.0000000000000000000, 0.0000000000000000000, 0.0000000000000000000 ) ) ;
#191 = DIRECTION ( 'NONE',  ( 1.000000000000000000, 0.0000000000000000000, 0.0000000000000000000 ) ) ;
#192 = PLANE ( 'NONE',  #108 ) ;
#193 = PRODUCT_DEFINITION_CONTEXT ( 'detailed design', #77, 'design' ) ;
#194 = STYLED_ITEM ( 'NONE', ( #211 ), #113 ) ;
#195 = ADVANCED_BREP_SHAPE_REPRESENTATION ( '03-1685', ( #147, #113, #204 ), #168 ) ;
#196 = PRESENTATION_STYLE_ASSIGNMENT (( #146 ) ) ;
#197 = CLOSED_SHELL ( 'NONE', ( #202, #160, #5, #79 ) ) ;
#198 = STYLED_ITEM ( 'NONE', ( #111 ), #147 ) ;
#199 = FILL_AREA_STYLE_COLOUR ( '', #140 ) ;
#200 =( LENGTH_UNIT ( ) NAMED_UNIT ( * ) SI_UNIT ( .MILLI., .METRE. ) );
#201 = SURFACE_SIDE_STYLE ('',( #142 ) ) ;
#202 = ADVANCED_FACE ( 'NONE', ( #132, #119 ), #69, .T. ) ;
#203 = FILL_AREA_STYLE_COLOUR ( '', #75 ) ;
#204 = AXIS2_PLACEMENT_3D ( 'NONE', #92, #207, #137 ) ;
#205 = DIRECTION ( 'NONE',  ( 0.0000000000000000000, 0.0000000000000000000, 1.000000000000000000 ) ) ;
#206 = DIRECTION ( 'NONE',  ( 1.000000000000000000, 0.0000000000000000000, 0.0000000000000000000 ) ) ;
#207 = DIRECTION ( 'NONE',  ( 0.0000000000000000000, 0.0000000000000000000, 1.000000000000000000 ) ) ;
#208 = CIRCLE ( 'NONE', #99, 3.950000000000007283 ) ;
#209 = EDGE_LOOP ( 'NONE', ( #19 ) ) ;
#210 = PRESENTATION_LAYER_ASSIGNMENT (  '', '', ( #184 ) ) ;
#211 = PRESENTATION_STYLE_ASSIGNMENT (( #8 ) ) ;
#212 = AXIS2_PLACEMENT_3D ( 'NONE', #32, #96, #35 ) ;
#213 = DIRECTION ( 'NONE',  ( 0.0000000000000000000, 0.0000000000000000000, -1.000000000000000000 ) ) ;
ENDSEC;
END-ISO-10303-21;
