ISO-10303-21;
HEADER;
FILE_DESCRIPTION (( 'STEP AP214' ),
    '1' );
FILE_NAME ('03-1686.STEP',
    '2021-10-01T05:39:07',
    ( 'USER' ),
    ( '' ),
    'SwSTEP 2.0',
    'SolidWorks 2018',
    '' );
FILE_SCHEMA (( 'AUTOMOTIVE_DESIGN' ));
ENDSEC;

DATA;
#1 = SURFACE_SIDE_STYLE ('',( #153 ) ) ;
#2 = FACE_OUTER_BOUND ( 'NONE', #6, .T. ) ;
#3 =( NAMED_UNIT ( * ) SI_UNIT ( $, .STERADIAN. ) SOLID_ANGLE_UNIT ( ) );
#4 = AXIS2_PLACEMENT_3D ( 'NONE', #5, #130, #115 ) ;
#5 = CARTESIAN_POINT ( 'NONE',  ( 115.3431457505075883, 0.0000000000000000000, 0.0000000000000000000 ) ) ;
#6 = EDGE_LOOP ( 'NONE', ( #191 ) ) ;
#7 = MANIFOLD_SOLID_BREP ( 'ºÐÇÒ2[2]', #188 ) ;
#8 = PRODUCT_DEFINITION_FORMATION_WITH_SPECIFIED_SOURCE ( 'ANY', '', #208, .NOT_KNOWN. ) ;
#9 = FACE_OUTER_BOUND ( 'NONE', #106, .T. ) ;
#10 = SURFACE_STYLE_USAGE ( .BOTH. , #1 ) ;
#11 = DIRECTION ( 'NONE',  ( 0.0000000000000000000, 0.0000000000000000000, -1.000000000000000000 ) ) ;
#12 = SURFACE_STYLE_USAGE ( .BOTH. , #85 ) ;
#13 = EDGE_LOOP ( 'NONE', ( #25 ) ) ;
#14 = EDGE_CURVE ( 'NONE', #107, #107, #46, .T. ) ;
#15 = DIRECTION ( 'NONE',  ( -1.000000000000000000, -0.0000000000000000000, -0.0000000000000000000 ) ) ;
#16 = CARTESIAN_POINT ( 'NONE',  ( -2.449293598294705428E-16, 0.0000000000000000000, -3.200000000000008171 ) ) ;
#17 = ORIENTED_EDGE ( 'NONE', *, *, #181, .T. ) ;
#18 = SURFACE_SIDE_STYLE ('',( #67 ) ) ;
#19 =( LENGTH_UNIT ( ) NAMED_UNIT ( * ) SI_UNIT ( .MILLI., .METRE. ) );
#20 = MECHANICAL_DESIGN_GEOMETRIC_PRESENTATION_REPRESENTATION (  '', ( #159 ), #201 ) ;
#21 = PRESENTATION_STYLE_ASSIGNMENT (( #38 ) ) ;
#22 =( NAMED_UNIT ( * ) PLANE_ANGLE_UNIT ( ) SI_UNIT ( $, .RADIAN. ) );
#23 = CARTESIAN_POINT ( 'NONE',  ( -2.449293598294705428E-16, 0.0000000000000000000, 0.0000000000000000000 ) ) ;
#24 = CARTESIAN_POINT ( 'NONE',  ( 42.00000000000000711, 0.0000000000000000000, -4.000000000000007105 ) ) ;
#25 = ORIENTED_EDGE ( 'NONE', *, *, #212, .T. ) ;
#26 = AXIS2_PLACEMENT_3D ( 'NONE', #89, #213, #184 ) ;
#27 = AXIS2_PLACEMENT_3D ( 'NONE', #111, #173, #161 ) ;
#28 = FACE_OUTER_BOUND ( 'NONE', #34, .T. ) ;
#29 =( NAMED_UNIT ( * ) SI_UNIT ( $, .STERADIAN. ) SOLID_ANGLE_UNIT ( ) );
#30 = EDGE_CURVE ( 'NONE', #95, #95, #96, .T. ) ;
#31 = ORIENTED_EDGE ( 'NONE', *, *, #14, .F. ) ;
#32 = UNCERTAINTY_MEASURE_WITH_UNIT (LENGTH_MEASURE( 1.000000000000000082E-05 ), #99, 'distance_accuracy_value', 'NONE');
#33 = PLANE ( 'NONE',  #149 ) ;
#34 = EDGE_LOOP ( 'NONE', ( #77 ) ) ;
#35 = DIRECTION ( 'NONE',  ( 1.000000000000000000, 0.0000000000000000000, 0.0000000000000000000 ) ) ;
#36 = SURFACE_STYLE_USAGE ( .BOTH. , #78 ) ;
#37 = SURFACE_STYLE_FILL_AREA ( #44 ) ;
#38 = SURFACE_STYLE_USAGE ( .BOTH. , #18 ) ;
#39 = FACE_BOUND ( 'NONE', #59, .T. ) ;
#40 = DIRECTION ( 'NONE',  ( 0.0000000000000000000, 0.0000000000000000000, -1.000000000000000000 ) ) ;
#41 = FILL_AREA_STYLE_COLOUR ( '', #52 ) ;
#42 = STYLED_ITEM ( 'NONE', ( #204 ), #7 ) ;
#43 = DIRECTION ( 'NONE',  ( -1.000000000000000000, -0.0000000000000000000, -0.0000000000000000000 ) ) ;
#44 = FILL_AREA_STYLE ('',( #71 ) ) ;
#45 =( NAMED_UNIT ( * ) PLANE_ANGLE_UNIT ( ) SI_UNIT ( $, .RADIAN. ) );
#46 = CIRCLE ( 'NONE', #26, 4.000000000000007105 ) ;
#47 = CARTESIAN_POINT ( 'NONE',  ( 42.00000000000000711, 0.0000000000000000000, 0.0000000000000000000 ) ) ;
#48 = APPLICATION_PROTOCOL_DEFINITION ( 'draft international standard', 'automotive_design', 1998, #199 ) ;
#49 = DIRECTION ( 'NONE',  ( 1.000000000000000000, 0.0000000000000000000, 0.0000000000000000000 ) ) ;
#50 = PLANE ( 'NONE',  #100 ) ;
#51 = COLOUR_RGB ( '',0.7921568627450980005, 0.8196078431372548767, 0.9333333333333333481 ) ;
#52 = COLOUR_RGB ( '',0.7921568627450980005, 0.8196078431372548767, 0.9333333333333333481 ) ;
#53 = PRESENTATION_LAYER_ASSIGNMENT (  '', '', ( #42 ) ) ;
#54 = APPLICATION_CONTEXT ( 'automotive_design' ) ;
#55 = CYLINDRICAL_SURFACE ( 'NONE', #109, 4.000000000000007105 ) ;
#56 = CARTESIAN_POINT ( 'NONE',  ( 115.3431457505075883, 0.0000000000000000000, 4.000000000000014211 ) ) ;
#57 = CARTESIAN_POINT ( 'NONE',  ( 42.00000000000000711, 0.0000000000000000000, 0.0000000000000000000 ) ) ;
#58 = DIRECTION ( 'NONE',  ( 1.000000000000000000, 0.0000000000000000000, 0.0000000000000000000 ) ) ;
#59 = EDGE_LOOP ( 'NONE', ( #141 ) ) ;
#60 =( NAMED_UNIT ( * ) PLANE_ANGLE_UNIT ( ) SI_UNIT ( $, .RADIAN. ) );
#61 = DIRECTION ( 'NONE',  ( 0.0000000000000000000, 0.0000000000000000000, -1.000000000000000000 ) ) ;
#62 = MECHANICAL_DESIGN_GEOMETRIC_PRESENTATION_REPRESENTATION (  '', ( #42 ), #205 ) ;
#63 =( GEOMETRIC_REPRESENTATION_CONTEXT ( 3 ) GLOBAL_UNCERTAINTY_ASSIGNED_CONTEXT ( ( #32 ) ) GLOBAL_UNIT_ASSIGNED_CONTEXT ( ( #99, #80, #70 ) ) REPRESENTATION_CONTEXT ( 'NONE', 'WORKASPACE' ) );
#64 = EDGE_LOOP ( 'NONE', ( #147 ) ) ;
#65 = DIRECTION ( 'NONE',  ( 1.000000000000000000, 0.0000000000000000000, 0.0000000000000000000 ) ) ;
#66 = DIRECTION ( 'NONE',  ( 1.000000000000000000, 0.0000000000000000000, 0.0000000000000000000 ) ) ;
#67 = SURFACE_STYLE_FILL_AREA ( #105 ) ;
#68 =( GEOMETRIC_REPRESENTATION_CONTEXT ( 3 ) GLOBAL_UNCERTAINTY_ASSIGNED_CONTEXT ( ( #148 ) ) GLOBAL_UNIT_ASSIGNED_CONTEXT ( ( #79, #189, #200 ) ) REPRESENTATION_CONTEXT ( 'NONE', 'WORKASPACE' ) );
#69 = SURFACE_SIDE_STYLE ('',( #98 ) ) ;
#70 =( NAMED_UNIT ( * ) SI_UNIT ( $, .STERADIAN. ) SOLID_ANGLE_UNIT ( ) );
#71 = FILL_AREA_STYLE_COLOUR ( '', #51 ) ;
#72 = EDGE_LOOP ( 'NONE', ( #120 ) ) ;
#73 =( GEOMETRIC_REPRESENTATION_CONTEXT ( 3 ) GLOBAL_UNCERTAINTY_ASSIGNED_CONTEXT ( ( #127 ) ) GLOBAL_UNIT_ASSIGNED_CONTEXT ( ( #19, #22, #3 ) ) REPRESENTATION_CONTEXT ( 'NONE', 'WORKASPACE' ) );
#74 =( LENGTH_UNIT ( ) NAMED_UNIT ( * ) SI_UNIT ( .MILLI., .METRE. ) );
#75 = DIRECTION ( 'NONE',  ( -1.000000000000000000, -0.0000000000000000000, -0.0000000000000000000 ) ) ;
#76 = CIRCLE ( 'NONE', #137, 4.000000000000007105 ) ;
#77 = ORIENTED_EDGE ( 'NONE', *, *, #198, .F. ) ;
#78 = SURFACE_SIDE_STYLE ('',( #91 ) ) ;
#79 =( LENGTH_UNIT ( ) NAMED_UNIT ( * ) SI_UNIT ( .MILLI., .METRE. ) );
#80 =( NAMED_UNIT ( * ) PLANE_ANGLE_UNIT ( ) SI_UNIT ( $, .RADIAN. ) );
#81 = FACE_OUTER_BOUND ( 'NONE', #182, .T. ) ;
#82 = MECHANICAL_DESIGN_GEOMETRIC_PRESENTATION_REPRESENTATION (  '', ( #101 ), #73 ) ;
#83 = PLANE ( 'NONE',  #139 ) ;
#84 = FILL_AREA_STYLE_COLOUR ( '', #166 ) ;
#85 = SURFACE_SIDE_STYLE ('',( #37 ) ) ;
#86 = CLOSED_SHELL ( 'NONE', ( #145, #118, #162, #103 ) ) ;
#87 = DIRECTION ( 'NONE',  ( 0.0000000000000000000, 0.0000000000000000000, 1.000000000000000000 ) ) ;
#88 = AXIS2_PLACEMENT_3D ( 'NONE', #138, #43, #92 ) ;
#89 = CARTESIAN_POINT ( 'NONE',  ( 42.00000000000000711, 0.0000000000000000000, 0.0000000000000000000 ) ) ;
#90 = VERTEX_POINT ( 'NONE', #144 ) ;
#91 = SURFACE_STYLE_FILL_AREA ( #136 ) ;
#92 = DIRECTION ( 'NONE',  ( 0.0000000000000000000, 0.0000000000000000000, -1.000000000000000000 ) ) ;
#93 = PRESENTATION_LAYER_ASSIGNMENT (  '', '', ( #101 ) ) ;
#94 = UNCERTAINTY_MEASURE_WITH_UNIT (LENGTH_MEASURE( 1.000000000000000082E-05 ), #74, 'distance_accuracy_value', 'NONE');
#95 = VERTEX_POINT ( 'NONE', #16 ) ;
#96 = CIRCLE ( 'NONE', #88, 3.200000000000008171 ) ;
#97 = UNCERTAINTY_MEASURE_WITH_UNIT (LENGTH_MEASURE( 1.000000000000000082E-05 ), #116, 'distance_accuracy_value', 'NONE');
#98 = SURFACE_STYLE_FILL_AREA ( #156 ) ;
#99 =( LENGTH_UNIT ( ) NAMED_UNIT ( * ) SI_UNIT ( .MILLI., .METRE. ) );
#100 = AXIS2_PLACEMENT_3D ( 'NONE', #126, #65, #167 ) ;
#101 = STYLED_ITEM ( 'NONE', ( #21 ), #206 ) ;
#102 = ADVANCED_FACE ( 'NONE', ( #150, #211 ), #55, .T. ) ;
#103 = ADVANCED_FACE ( 'NONE', ( #169 ), #33, .T. ) ;
#104 = FILL_AREA_STYLE ('',( #207 ) ) ;
#105 = FILL_AREA_STYLE ('',( #193 ) ) ;
#106 = EDGE_LOOP ( 'NONE', ( #176 ) ) ;
#107 = VERTEX_POINT ( 'NONE', #125 ) ;
#108 = PRESENTATION_STYLE_ASSIGNMENT (( #10 ) ) ;
#109 = AXIS2_PLACEMENT_3D ( 'NONE', #123, #15, #158 ) ;
#110 = PRODUCT_DEFINITION_CONTEXT ( 'detailed design', #199, 'design' ) ;
#111 = CARTESIAN_POINT ( 'NONE',  ( 0.0000000000000000000, 0.0000000000000000000, 0.0000000000000000000 ) ) ;
#112 = COLOUR_RGB ( '',0.7921568627450980005, 0.8196078431372548767, 0.9333333333333333481 ) ;
#113 = EDGE_LOOP ( 'NONE', ( #17 ) ) ;
#114 = DIRECTION ( 'NONE',  ( -1.000000000000000000, -0.0000000000000000000, -0.0000000000000000000 ) ) ;
#115 = DIRECTION ( 'NONE',  ( 0.0000000000000000000, 0.0000000000000000000, 1.000000000000000000 ) ) ;
#116 =( LENGTH_UNIT ( ) NAMED_UNIT ( * ) SI_UNIT ( .MILLI., .METRE. ) );
#117 = DIRECTION ( 'NONE',  ( 0.0000000000000000000, 0.0000000000000000000, -1.000000000000000000 ) ) ;
#118 = ADVANCED_FACE ( 'NONE', ( #9 ), #50, .F. ) ;
#119 = FACE_OUTER_BOUND ( 'NONE', #64, .T. ) ;
#120 = ORIENTED_EDGE ( 'NONE', *, *, #14, .T. ) ;
#121 = CARTESIAN_POINT ( 'NONE',  ( 0.0000000000000000000, 0.0000000000000000000, 0.0000000000000000000 ) ) ;
#122 = PRESENTATION_LAYER_ASSIGNMENT (  '', '', ( #159 ) ) ;
#123 = CARTESIAN_POINT ( 'NONE',  ( 0.0000000000000000000, 0.0000000000000000000, 0.0000000000000000000 ) ) ;
#124 = AXIS2_PLACEMENT_3D ( 'NONE', #47, #58, #117 ) ;
#125 = CARTESIAN_POINT ( 'NONE',  ( 42.00000000000000711, 0.0000000000000000000, -4.000000000000007105 ) ) ;
#126 = CARTESIAN_POINT ( 'NONE',  ( -2.449293598294705428E-16, 3.999999999999999112, 0.0000000000000000000 ) ) ;
#127 = UNCERTAINTY_MEASURE_WITH_UNIT (LENGTH_MEASURE( 1.000000000000000082E-05 ), #19, 'distance_accuracy_value', 'NONE');
#128 =( GEOMETRIC_REPRESENTATION_CONTEXT ( 3 ) GLOBAL_UNCERTAINTY_ASSIGNED_CONTEXT ( ( #97 ) ) GLOBAL_UNIT_ASSIGNED_CONTEXT ( ( #116, #60, #177 ) ) REPRESENTATION_CONTEXT ( 'NONE', 'WORKASPACE' ) );
#129 = VERTEX_POINT ( 'NONE', #24 ) ;
#130 = DIRECTION ( 'NONE',  ( -1.000000000000000000, -0.0000000000000000000, -0.0000000000000000000 ) ) ;
#131 = COLOUR_RGB ( '',1.000000000000000000, 1.000000000000000000, 0.0000000000000000000 ) ;
#132 = CARTESIAN_POINT ( 'NONE',  ( -883.0000000000000000, 0.0000000000000000000, 0.0000000000000000000 ) ) ;
#133 = AXIS2_PLACEMENT_3D ( 'NONE', #23, #66, #61 ) ;
#134 = PRESENTATION_STYLE_ASSIGNMENT (( #179 ) ) ;
#135 = ADVANCED_FACE ( 'NONE', ( #2 ), #187, .T. ) ;
#136 = FILL_AREA_STYLE ('',( #41 ) ) ;
#137 = AXIS2_PLACEMENT_3D ( 'NONE', #140, #35, #40 ) ;
#138 = CARTESIAN_POINT ( 'NONE',  ( -2.449293598294705428E-16, 0.0000000000000000000, 0.0000000000000000000 ) ) ;
#139 = AXIS2_PLACEMENT_3D ( 'NONE', #168, #203, #180 ) ;
#140 = CARTESIAN_POINT ( 'NONE',  ( 0.7999999999999968248, 0.0000000000000000000, 0.0000000000000000000 ) ) ;
#141 = ORIENTED_EDGE ( 'NONE', *, *, #30, .F. ) ;
#142 = APPLICATION_PROTOCOL_DEFINITION ( 'draft international standard', 'automotive_design', 1998, #54 ) ;
#143 = PRESENTATION_LAYER_ASSIGNMENT (  '', '', ( #155 ) ) ;
#144 = CARTESIAN_POINT ( 'NONE',  ( 0.7999999999999968248, 0.0000000000000000000, -4.000000000000007105 ) ) ;
#145 = ADVANCED_FACE ( 'NONE', ( #157, #81 ), #152, .T. ) ;
#146 = CONICAL_SURFACE ( 'NONE', #133, 3.200000000000008171, 0.7853981633974492782 ) ;
#147 = ORIENTED_EDGE ( 'NONE', *, *, #212, .F. ) ;
#148 = UNCERTAINTY_MEASURE_WITH_UNIT (LENGTH_MEASURE( 1.000000000000000082E-05 ), #79, 'distance_accuracy_value', 'NONE');
#149 = AXIS2_PLACEMENT_3D ( 'NONE', #57, #49, #11 ) ;
#150 = FACE_OUTER_BOUND ( 'NONE', #164, .T. ) ;
#151 = AXIS2_PLACEMENT_3D ( 'NONE', #132, #114, #87 ) ;
#152 = CYLINDRICAL_SURFACE ( 'NONE', #154, 4.000000000000007105 ) ;
#153 = SURFACE_STYLE_FILL_AREA ( #104 ) ;
#154 = AXIS2_PLACEMENT_3D ( 'NONE', #121, #75, #209 ) ;
#155 = STYLED_ITEM ( 'NONE', ( #190 ), #172 ) ;
#156 = FILL_AREA_STYLE ('',( #84 ) ) ;
#157 = FACE_OUTER_BOUND ( 'NONE', #13, .T. ) ;
#158 = DIRECTION ( 'NONE',  ( 0.0000000000000000000, 0.0000000000000000000, 1.000000000000000000 ) ) ;
#159 = STYLED_ITEM ( 'NONE', ( #134 ), #135 ) ;
#160 = ORIENTED_EDGE ( 'NONE', *, *, #198, .T. ) ;
#161 = DIRECTION ( 'NONE',  ( 1.000000000000000000, 0.0000000000000000000, 0.0000000000000000000 ) ) ;
#162 = ADVANCED_FACE ( 'NONE', ( #119, #39 ), #146, .T. ) ;
#163 = VERTEX_POINT ( 'NONE', #56 ) ;
#164 = EDGE_LOOP ( 'NONE', ( #160 ) ) ;
#165 = STYLED_ITEM ( 'NONE', ( #108 ), #102 ) ;
#166 = COLOUR_RGB ( '',1.000000000000000000, 1.000000000000000000, 0.0000000000000000000 ) ;
#167 = DIRECTION ( 'NONE',  ( 0.0000000000000000000, 0.0000000000000000000, -1.000000000000000000 ) ) ;
#168 = CARTESIAN_POINT ( 'NONE',  ( 42.00000000000000711, 0.0000000000000000000, 0.0000000000000000000 ) ) ;
#169 = FACE_OUTER_BOUND ( 'NONE', #72, .T. ) ;
#170 = MECHANICAL_DESIGN_GEOMETRIC_PRESENTATION_REPRESENTATION (  '', ( #155 ), #128 ) ;
#171 =( NAMED_UNIT ( * ) PLANE_ANGLE_UNIT ( ) SI_UNIT ( $, .RADIAN. ) );
#172 = ADVANCED_BREP_SHAPE_REPRESENTATION ( '03-1686', ( #206, #7, #27 ), #63 ) ;
#173 = DIRECTION ( 'NONE',  ( 0.0000000000000000000, 0.0000000000000000000, 1.000000000000000000 ) ) ;
#174 = PRESENTATION_LAYER_ASSIGNMENT (  '', '', ( #165 ) ) ;
#175 = PRODUCT_RELATED_PRODUCT_CATEGORY ( 'part', '', ( #208 ) ) ;
#176 = ORIENTED_EDGE ( 'NONE', *, *, #30, .T. ) ;
#177 =( NAMED_UNIT ( * ) SI_UNIT ( $, .STERADIAN. ) SOLID_ANGLE_UNIT ( ) );
#178 = CIRCLE ( 'NONE', #4, 4.000000000000014211 ) ;
#179 = SURFACE_STYLE_USAGE ( .BOTH. , #69 ) ;
#180 = DIRECTION ( 'NONE',  ( 0.0000000000000000000, 0.0000000000000000000, -1.000000000000000000 ) ) ;
#181 = EDGE_CURVE ( 'NONE', #163, #163, #178, .T. ) ;
#182 = EDGE_LOOP ( 'NONE', ( #31 ) ) ;
#183 = PRODUCT_CONTEXT ( 'NONE', #54, 'mechanical' ) ;
#184 = DIRECTION ( 'NONE',  ( 0.0000000000000000000, 0.0000000000000000000, -1.000000000000000000 ) ) ;
#185 =( NAMED_UNIT ( * ) SI_UNIT ( $, .STERADIAN. ) SOLID_ANGLE_UNIT ( ) );
#186 = ADVANCED_FACE ( 'NONE', ( #28 ), #83, .F. ) ;
#187 = CONICAL_SURFACE ( 'NONE', #151, 2414.213562373056902, 1.178097245096166867 ) ;
#188 = CLOSED_SHELL ( 'NONE', ( #186, #102, #135 ) ) ;
#189 =( NAMED_UNIT ( * ) PLANE_ANGLE_UNIT ( ) SI_UNIT ( $, .RADIAN. ) );
#190 = PRESENTATION_STYLE_ASSIGNMENT (( #12 ) ) ;
#191 = ORIENTED_EDGE ( 'NONE', *, *, #181, .F. ) ;
#192 = MECHANICAL_DESIGN_GEOMETRIC_PRESENTATION_REPRESENTATION (  '', ( #165 ), #68 ) ;
#193 = FILL_AREA_STYLE_COLOUR ( '', #112 ) ;
#194 = PRODUCT_DEFINITION ( 'UNKNOWN', '', #8, #110 ) ;
#195 = PRODUCT_DEFINITION_SHAPE ( 'NONE', 'NONE',  #194 ) ;
#196 = CIRCLE ( 'NONE', #124, 4.000000000000007105 ) ;
#197 = UNCERTAINTY_MEASURE_WITH_UNIT (LENGTH_MEASURE( 1.000000000000000082E-05 ), #202, 'distance_accuracy_value', 'NONE');
#198 = EDGE_CURVE ( 'NONE', #129, #129, #196, .T. ) ;
#199 = APPLICATION_CONTEXT ( 'automotive_design' ) ;
#200 =( NAMED_UNIT ( * ) SI_UNIT ( $, .STERADIAN. ) SOLID_ANGLE_UNIT ( ) );
#201 =( GEOMETRIC_REPRESENTATION_CONTEXT ( 3 ) GLOBAL_UNCERTAINTY_ASSIGNED_CONTEXT ( ( #197 ) ) GLOBAL_UNIT_ASSIGNED_CONTEXT ( ( #202, #45, #29 ) ) REPRESENTATION_CONTEXT ( 'NONE', 'WORKASPACE' ) );
#202 =( LENGTH_UNIT ( ) NAMED_UNIT ( * ) SI_UNIT ( .MILLI., .METRE. ) );
#203 = DIRECTION ( 'NONE',  ( 1.000000000000000000, 0.0000000000000000000, 0.0000000000000000000 ) ) ;
#204 = PRESENTATION_STYLE_ASSIGNMENT (( #36 ) ) ;
#205 =( GEOMETRIC_REPRESENTATION_CONTEXT ( 3 ) GLOBAL_UNCERTAINTY_ASSIGNED_CONTEXT ( ( #94 ) ) GLOBAL_UNIT_ASSIGNED_CONTEXT ( ( #74, #171, #185 ) ) REPRESENTATION_CONTEXT ( 'NONE', 'WORKASPACE' ) );
#206 = MANIFOLD_SOLID_BREP ( 'ºÐÇÒ2[1]', #86 ) ;
#207 = FILL_AREA_STYLE_COLOUR ( '', #131 ) ;
#208 = PRODUCT ( '03-1686', '03-1686', '', ( #183 ) ) ;
#209 = DIRECTION ( 'NONE',  ( 0.0000000000000000000, 0.0000000000000000000, 1.000000000000000000 ) ) ;
#210 = SHAPE_DEFINITION_REPRESENTATION ( #195, #172 ) ;
#211 = FACE_OUTER_BOUND ( 'NONE', #113, .T. ) ;
#212 = EDGE_CURVE ( 'NONE', #90, #90, #76, .T. ) ;
#213 = DIRECTION ( 'NONE',  ( 1.000000000000000000, 0.0000000000000000000, 0.0000000000000000000 ) ) ;
ENDSEC;
END-ISO-10303-21;
