ISO-10303-21;
HEADER;
FILE_DESCRIPTION (( 'STEP AP214' ),
    '1' );
FILE_NAME ('03-1690.STEP',
    '2021-10-01T05:40:21',
    ( 'USER' ),
    ( '' ),
    'SwSTEP 2.0',
    'SolidWorks 2018',
    '' );
FILE_SCHEMA (( 'AUTOMOTIVE_DESIGN' ));
ENDSEC;

DATA;
#1 = DIRECTION ( 'NONE',  ( 0.0000000000000000000, 0.0000000000000000000, -1.000000000000000000 ) ) ;
#2 = SURFACE_STYLE_FILL_AREA ( #173 ) ;
#3 = PRESENTATION_STYLE_ASSIGNMENT (( #67 ) ) ;
#4 = CARTESIAN_POINT ( 'NONE',  ( -2.571758278209442943E-16, 0.0000000000000000000, -3.359999999999987885 ) ) ;
#5 = EDGE_LOOP ( 'NONE', ( #12 ) ) ;
#6 = EDGE_LOOP ( 'NONE', ( #7 ) ) ;
#7 = ORIENTED_EDGE ( 'NONE', *, *, #131, .T. ) ;
#8 = SURFACE_SIDE_STYLE ('',( #2 ) ) ;
#9 =( GEOMETRIC_REPRESENTATION_CONTEXT ( 3 ) GLOBAL_UNCERTAINTY_ASSIGNED_CONTEXT ( ( #196 ) ) GLOBAL_UNIT_ASSIGNED_CONTEXT ( ( #204, #91, #187 ) ) REPRESENTATION_CONTEXT ( 'NONE', 'WORKASPACE' ) );
#10 = VERTEX_POINT ( 'NONE', #170 ) ;
#11 = VERTEX_POINT ( 'NONE', #142 ) ;
#12 = ORIENTED_EDGE ( 'NONE', *, *, #94, .T. ) ;
#13 = DIRECTION ( 'NONE',  ( 1.000000000000000000, 0.0000000000000000000, 0.0000000000000000000 ) ) ;
#14 = DIRECTION ( 'NONE',  ( 0.0000000000000000000, 0.0000000000000000000, -1.000000000000000000 ) ) ;
#15 =( GEOMETRIC_REPRESENTATION_CONTEXT ( 3 ) GLOBAL_UNCERTAINTY_ASSIGNED_CONTEXT ( ( #34 ) ) GLOBAL_UNIT_ASSIGNED_CONTEXT ( ( #143, #198, #85 ) ) REPRESENTATION_CONTEXT ( 'NONE', 'WORKASPACE' ) );
#16 = AXIS2_PLACEMENT_3D ( 'NONE', #123, #183, #69 ) ;
#17 = SURFACE_STYLE_FILL_AREA ( #39 ) ;
#18 = AXIS2_PLACEMENT_3D ( 'NONE', #54, #135, #32 ) ;
#19 = CIRCLE ( 'NONE', #62, 4.200000000000007283 ) ;
#20 = ORIENTED_EDGE ( 'NONE', *, *, #94, .F. ) ;
#21 = ADVANCED_FACE ( 'NONE', ( #76, #50 ), #97, .T. ) ;
#22 = FACE_BOUND ( 'NONE', #201, .T. ) ;
#23 = SURFACE_STYLE_USAGE ( .BOTH. , #140 ) ;
#24 = EDGE_LOOP ( 'NONE', ( #112 ) ) ;
#25 = DIRECTION ( 'NONE',  ( -1.000000000000000000, -0.0000000000000000000, -0.0000000000000000000 ) ) ;
#26 = MANIFOLD_SOLID_BREP ( 'ºÐÇÒ2[1]', #93 ) ;
#27 = CARTESIAN_POINT ( 'NONE',  ( -2.571758278209442943E-16, 0.0000000000000000000, 0.0000000000000000000 ) ) ;
#28 = FILL_AREA_STYLE_COLOUR ( '', #150 ) ;
#29 = COLOUR_RGB ( '',0.7921568627450980005, 0.8196078431372548767, 0.9333333333333333481 ) ;
#30 = SHAPE_DEFINITION_REPRESENTATION ( #210, #86 ) ;
#31 = ORIENTED_EDGE ( 'NONE', *, *, #116, .T. ) ;
#32 = DIRECTION ( 'NONE',  ( 0.0000000000000000000, 0.0000000000000000000, 1.000000000000000000 ) ) ;
#33 =( GEOMETRIC_REPRESENTATION_CONTEXT ( 3 ) GLOBAL_UNCERTAINTY_ASSIGNED_CONTEXT ( ( #77 ) ) GLOBAL_UNIT_ASSIGNED_CONTEXT ( ( #98, #154, #119 ) ) REPRESENTATION_CONTEXT ( 'NONE', 'WORKASPACE' ) );
#34 = UNCERTAINTY_MEASURE_WITH_UNIT (LENGTH_MEASURE( 1.000000000000000082E-05 ), #143, 'distance_accuracy_value', 'NONE');
#35 = FACE_OUTER_BOUND ( 'NONE', #194, .T. ) ;
#36 = DIRECTION ( 'NONE',  ( 0.0000000000000000000, 0.0000000000000000000, 1.000000000000000000 ) ) ;
#37 = ADVANCED_FACE ( 'NONE', ( #87 ), #165, .F. ) ;
#38 = CIRCLE ( 'NONE', #134, 3.359999999999987885 ) ;
#39 = FILL_AREA_STYLE ('',( #157 ) ) ;
#40 = PRESENTATION_STYLE_ASSIGNMENT (( #193 ) ) ;
#41 = CARTESIAN_POINT ( 'NONE',  ( 42.00000000000000711, 0.0000000000000000000, 0.0000000000000000000 ) ) ;
#42 = COLOUR_RGB ( '',1.000000000000000000, 1.000000000000000000, 0.0000000000000000000 ) ;
#43 = CARTESIAN_POINT ( 'NONE',  ( -883.0000000000000000, 0.0000000000000000000, 0.0000000000000000000 ) ) ;
#44 = AXIS2_PLACEMENT_3D ( 'NONE', #45, #205, #174 ) ;
#45 = CARTESIAN_POINT ( 'NONE',  ( -2.571758278209442943E-16, 0.0000000000000000000, 0.0000000000000000000 ) ) ;
#46 = PRESENTATION_STYLE_ASSIGNMENT (( #132 ) ) ;
#47 = DIRECTION ( 'NONE',  ( 0.0000000000000000000, 0.0000000000000000000, -1.000000000000000000 ) ) ;
#48 = CONICAL_SURFACE ( 'NONE', #44, 3.359999999999987885, 0.7853981633974492782 ) ;
#49 = AXIS2_PLACEMENT_3D ( 'NONE', #41, #184, #72 ) ;
#50 = FACE_OUTER_BOUND ( 'NONE', #24, .T. ) ;
#51 = SURFACE_STYLE_FILL_AREA ( #181 ) ;
#52 = PRODUCT_DEFINITION ( 'UNKNOWN', '', #70, #129 ) ;
#53 = AXIS2_PLACEMENT_3D ( 'NONE', #95, #130, #14 ) ;
#54 = CARTESIAN_POINT ( 'NONE',  ( 115.2603030380329727, 0.0000000000000000000, 0.0000000000000000000 ) ) ;
#55 = SURFACE_STYLE_FILL_AREA ( #100 ) ;
#56 = APPLICATION_CONTEXT ( 'automotive_design' ) ;
#57 = APPLICATION_CONTEXT ( 'automotive_design' ) ;
#58 = CARTESIAN_POINT ( 'NONE',  ( 0.8400000000000176215, 0.0000000000000000000, -4.200000000000007283 ) ) ;
#59 = DIRECTION ( 'NONE',  ( 0.0000000000000000000, 0.0000000000000000000, 1.000000000000000000 ) ) ;
#60 = UNCERTAINTY_MEASURE_WITH_UNIT (LENGTH_MEASURE( 1.000000000000000082E-05 ), #122, 'distance_accuracy_value', 'NONE');
#61 =( GEOMETRIC_REPRESENTATION_CONTEXT ( 3 ) GLOBAL_UNCERTAINTY_ASSIGNED_CONTEXT ( ( #60 ) ) GLOBAL_UNIT_ASSIGNED_CONTEXT ( ( #122, #106, #197 ) ) REPRESENTATION_CONTEXT ( 'NONE', 'WORKASPACE' ) );
#62 = AXIS2_PLACEMENT_3D ( 'NONE', #101, #192, #79 ) ;
#63 = FACE_OUTER_BOUND ( 'NONE', #146, .T. ) ;
#64 = UNCERTAINTY_MEASURE_WITH_UNIT (LENGTH_MEASURE( 1.000000000000000082E-05 ), #202, 'distance_accuracy_value', 'NONE');
#65 = PRESENTATION_LAYER_ASSIGNMENT (  '', '', ( #110 ) ) ;
#66 = CARTESIAN_POINT ( 'NONE',  ( -2.571758278209442943E-16, 4.200000000000001066, 0.0000000000000000000 ) ) ;
#67 = SURFACE_STYLE_USAGE ( .BOTH. , #78 ) ;
#68 = SURFACE_STYLE_FILL_AREA ( #179 ) ;
#69 = DIRECTION ( 'NONE',  ( 1.000000000000000000, 0.0000000000000000000, 0.0000000000000000000 ) ) ;
#70 = PRODUCT_DEFINITION_FORMATION_WITH_SPECIFIED_SOURCE ( 'ANY', '', #121, .NOT_KNOWN. ) ;
#71 = APPLICATION_PROTOCOL_DEFINITION ( 'draft international standard', 'automotive_design', 1998, #57 ) ;
#72 = DIRECTION ( 'NONE',  ( 0.0000000000000000000, 0.0000000000000000000, -1.000000000000000000 ) ) ;
#73 =( NAMED_UNIT ( * ) SI_UNIT ( $, .STERADIAN. ) SOLID_ANGLE_UNIT ( ) );
#74 = PRESENTATION_LAYER_ASSIGNMENT (  '', '', ( #208 ) ) ;
#75 = UNCERTAINTY_MEASURE_WITH_UNIT (LENGTH_MEASURE( 1.000000000000000082E-05 ), #115, 'distance_accuracy_value', 'NONE');
#76 = FACE_OUTER_BOUND ( 'NONE', #5, .T. ) ;
#77 = UNCERTAINTY_MEASURE_WITH_UNIT (LENGTH_MEASURE( 1.000000000000000082E-05 ), #98, 'distance_accuracy_value', 'NONE');
#78 = SURFACE_SIDE_STYLE ('',( #51 ) ) ;
#79 = DIRECTION ( 'NONE',  ( 0.0000000000000000000, 0.0000000000000000000, -1.000000000000000000 ) ) ;
#80 = AXIS2_PLACEMENT_3D ( 'NONE', #66, #189, #195 ) ;
#81 = ORIENTED_EDGE ( 'NONE', *, *, #107, .T. ) ;
#82 = CARTESIAN_POINT ( 'NONE',  ( 0.0000000000000000000, 0.0000000000000000000, 0.0000000000000000000 ) ) ;
#83 = CARTESIAN_POINT ( 'NONE',  ( 0.0000000000000000000, 0.0000000000000000000, 0.0000000000000000000 ) ) ;
#84 = ADVANCED_FACE ( 'NONE', ( #35, #153 ), #136, .T. ) ;
#85 =( NAMED_UNIT ( * ) SI_UNIT ( $, .STERADIAN. ) SOLID_ANGLE_UNIT ( ) );
#86 = ADVANCED_BREP_SHAPE_REPRESENTATION ( '03-1690', ( #26, #144, #16 ), #15 ) ;
#87 = FACE_OUTER_BOUND ( 'NONE', #6, .T. ) ;
#88 = DIRECTION ( 'NONE',  ( 0.0000000000000000000, 0.0000000000000000000, -1.000000000000000000 ) ) ;
#89 = PRESENTATION_LAYER_ASSIGNMENT (  '', '', ( #102 ) ) ;
#90 =( NAMED_UNIT ( * ) PLANE_ANGLE_UNIT ( ) SI_UNIT ( $, .RADIAN. ) );
#91 =( NAMED_UNIT ( * ) PLANE_ANGLE_UNIT ( ) SI_UNIT ( $, .RADIAN. ) );
#92 = ORIENTED_EDGE ( 'NONE', *, *, #199, .T. ) ;
#93 = CLOSED_SHELL ( 'NONE', ( #21, #37, #155, #212 ) ) ;
#94 = EDGE_CURVE ( 'NONE', #177, #177, #124, .T. ) ;
#95 = CARTESIAN_POINT ( 'NONE',  ( 0.8400000000000176215, 0.0000000000000000000, 0.0000000000000000000 ) ) ;
#96 = PRESENTATION_STYLE_ASSIGNMENT (( #109 ) ) ;
#97 = CYLINDRICAL_SURFACE ( 'NONE', #125, 4.200000000000007283 ) ;
#98 =( LENGTH_UNIT ( ) NAMED_UNIT ( * ) SI_UNIT ( .MILLI., .METRE. ) );
#99 = FACE_OUTER_BOUND ( 'NONE', #126, .T. ) ;
#100 = FILL_AREA_STYLE ('',( #28 ) ) ;
#101 = CARTESIAN_POINT ( 'NONE',  ( 42.00000000000000711, 0.0000000000000000000, 0.0000000000000000000 ) ) ;
#102 = STYLED_ITEM ( 'NONE', ( #46 ), #26 ) ;
#103 = CLOSED_SHELL ( 'NONE', ( #105, #84, #167 ) ) ;
#104 = FILL_AREA_STYLE_COLOUR ( '', #42 ) ;
#105 = ADVANCED_FACE ( 'NONE', ( #162 ), #147, .F. ) ;
#106 =( NAMED_UNIT ( * ) PLANE_ANGLE_UNIT ( ) SI_UNIT ( $, .RADIAN. ) );
#107 = EDGE_CURVE ( 'NONE', #10, #10, #19, .T. ) ;
#108 = CARTESIAN_POINT ( 'NONE',  ( 42.00000000000000711, 0.0000000000000000000, 0.0000000000000000000 ) ) ;
#109 = SURFACE_STYLE_USAGE ( .BOTH. , #8 ) ;
#110 = STYLED_ITEM ( 'NONE', ( #40 ), #144 ) ;
#111 = EDGE_LOOP ( 'NONE', ( #133 ) ) ;
#112 = ORIENTED_EDGE ( 'NONE', *, *, #107, .F. ) ;
#113 = FILL_AREA_STYLE_COLOUR ( '', #29 ) ;
#114 = EDGE_LOOP ( 'NONE', ( #31 ) ) ;
#115 =( LENGTH_UNIT ( ) NAMED_UNIT ( * ) SI_UNIT ( .MILLI., .METRE. ) );
#116 = EDGE_CURVE ( 'NONE', #168, #168, #141, .T. ) ;
#117 = ORIENTED_EDGE ( 'NONE', *, *, #131, .F. ) ;
#118 = SURFACE_SIDE_STYLE ('',( #55 ) ) ;
#119 =( NAMED_UNIT ( * ) SI_UNIT ( $, .STERADIAN. ) SOLID_ANGLE_UNIT ( ) );
#120 = MECHANICAL_DESIGN_GEOMETRIC_PRESENTATION_REPRESENTATION (  '', ( #110 ), #9 ) ;
#121 = PRODUCT ( '03-1690', '03-1690', '', ( #169 ) ) ;
#122 =( LENGTH_UNIT ( ) NAMED_UNIT ( * ) SI_UNIT ( .MILLI., .METRE. ) );
#123 = CARTESIAN_POINT ( 'NONE',  ( 0.0000000000000000000, 0.0000000000000000000, 0.0000000000000000000 ) ) ;
#124 = CIRCLE ( 'NONE', #53, 4.200000000000007283 ) ;
#125 = AXIS2_PLACEMENT_3D ( 'NONE', #82, #152, #139 ) ;
#126 = EDGE_LOOP ( 'NONE', ( #81 ) ) ;
#127 = PLANE ( 'NONE',  #49 ) ;
#128 =( GEOMETRIC_REPRESENTATION_CONTEXT ( 3 ) GLOBAL_UNCERTAINTY_ASSIGNED_CONTEXT ( ( #75 ) ) GLOBAL_UNIT_ASSIGNED_CONTEXT ( ( #115, #149, #207 ) ) REPRESENTATION_CONTEXT ( 'NONE', 'WORKASPACE' ) );
#129 = PRODUCT_DEFINITION_CONTEXT ( 'detailed design', #56, 'design' ) ;
#130 = DIRECTION ( 'NONE',  ( 1.000000000000000000, 0.0000000000000000000, 0.0000000000000000000 ) ) ;
#131 = EDGE_CURVE ( 'NONE', #163, #163, #38, .T. ) ;
#132 = SURFACE_STYLE_USAGE ( .BOTH. , #138 ) ;
#133 = ORIENTED_EDGE ( 'NONE', *, *, #199, .F. ) ;
#134 = AXIS2_PLACEMENT_3D ( 'NONE', #27, #185, #1 ) ;
#135 = DIRECTION ( 'NONE',  ( -1.000000000000000000, -0.0000000000000000000, -0.0000000000000000000 ) ) ;
#136 = CYLINDRICAL_SURFACE ( 'NONE', #213, 4.200000000000007283 ) ;
#137 = DIRECTION ( 'NONE',  ( -1.000000000000000000, -0.0000000000000000000, -0.0000000000000000000 ) ) ;
#138 = SURFACE_SIDE_STYLE ('',( #68 ) ) ;
#139 = DIRECTION ( 'NONE',  ( 0.0000000000000000000, 0.0000000000000000000, 1.000000000000000000 ) ) ;
#140 = SURFACE_SIDE_STYLE ('',( #17 ) ) ;
#141 = CIRCLE ( 'NONE', #18, 4.200000000000014388 ) ;
#142 = CARTESIAN_POINT ( 'NONE',  ( 42.00000000000000711, 0.0000000000000000000, -4.200000000000007283 ) ) ;
#143 =( LENGTH_UNIT ( ) NAMED_UNIT ( * ) SI_UNIT ( .MILLI., .METRE. ) );
#144 = MANIFOLD_SOLID_BREP ( 'ºÐÇÒ2[2]', #103 ) ;
#145 = EDGE_LOOP ( 'NONE', ( #20 ) ) ;
#146 = EDGE_LOOP ( 'NONE', ( #175 ) ) ;
#147 = PLANE ( 'NONE',  #206 ) ;
#148 = FACE_OUTER_BOUND ( 'NONE', #145, .T. ) ;
#149 =( NAMED_UNIT ( * ) PLANE_ANGLE_UNIT ( ) SI_UNIT ( $, .RADIAN. ) );
#150 = COLOUR_RGB ( '',0.7921568627450980005, 0.8196078431372548767, 0.9333333333333333481 ) ;
#151 = PRESENTATION_LAYER_ASSIGNMENT (  '', '', ( #190 ) ) ;
#152 = DIRECTION ( 'NONE',  ( -1.000000000000000000, -0.0000000000000000000, -0.0000000000000000000 ) ) ;
#153 = FACE_OUTER_BOUND ( 'NONE', #114, .T. ) ;
#154 =( NAMED_UNIT ( * ) PLANE_ANGLE_UNIT ( ) SI_UNIT ( $, .RADIAN. ) );
#155 = ADVANCED_FACE ( 'NONE', ( #148, #22 ), #48, .T. ) ;
#156 = APPLICATION_PROTOCOL_DEFINITION ( 'draft international standard', 'automotive_design', 1998, #56 ) ;
#157 = FILL_AREA_STYLE_COLOUR ( '', #171 ) ;
#158 = CARTESIAN_POINT ( 'NONE',  ( 115.2603030380329727, 0.0000000000000000000, 4.200000000000014388 ) ) ;
#159 = FILL_AREA_STYLE_COLOUR ( '', #182 ) ;
#160 = CARTESIAN_POINT ( 'NONE',  ( 42.00000000000000711, 0.0000000000000000000, 0.0000000000000000000 ) ) ;
#161 = MECHANICAL_DESIGN_GEOMETRIC_PRESENTATION_REPRESENTATION (  '', ( #190 ), #186 ) ;
#162 = FACE_OUTER_BOUND ( 'NONE', #111, .T. ) ;
#163 = VERTEX_POINT ( 'NONE', #4 ) ;
#164 = AXIS2_PLACEMENT_3D ( 'NONE', #108, #200, #88 ) ;
#165 = PLANE ( 'NONE',  #80 ) ;
#166 = CIRCLE ( 'NONE', #164, 4.200000000000007283 ) ;
#167 = ADVANCED_FACE ( 'NONE', ( #63 ), #188, .T. ) ;
#168 = VERTEX_POINT ( 'NONE', #158 ) ;
#169 = PRODUCT_CONTEXT ( 'NONE', #57, 'mechanical' ) ;
#170 = CARTESIAN_POINT ( 'NONE',  ( 42.00000000000000711, 0.0000000000000000000, -4.200000000000007283 ) ) ;
#171 = COLOUR_RGB ( '',0.7921568627450980005, 0.8196078431372548767, 0.9333333333333333481 ) ;
#172 = PRESENTATION_LAYER_ASSIGNMENT (  '', '', ( #180 ) ) ;
#173 = FILL_AREA_STYLE ('',( #159 ) ) ;
#174 = DIRECTION ( 'NONE',  ( 0.0000000000000000000, 0.0000000000000000000, -1.000000000000000000 ) ) ;
#175 = ORIENTED_EDGE ( 'NONE', *, *, #116, .F. ) ;
#176 = MECHANICAL_DESIGN_GEOMETRIC_PRESENTATION_REPRESENTATION (  '', ( #208 ), #128 ) ;
#177 = VERTEX_POINT ( 'NONE', #58 ) ;
#178 = AXIS2_PLACEMENT_3D ( 'NONE', #43, #25, #59 ) ;
#179 = FILL_AREA_STYLE ('',( #113 ) ) ;
#180 = STYLED_ITEM ( 'NONE', ( #211 ), #86 ) ;
#181 = FILL_AREA_STYLE ('',( #104 ) ) ;
#182 = COLOUR_RGB ( '',1.000000000000000000, 1.000000000000000000, 0.0000000000000000000 ) ;
#183 = DIRECTION ( 'NONE',  ( 0.0000000000000000000, 0.0000000000000000000, 1.000000000000000000 ) ) ;
#184 = DIRECTION ( 'NONE',  ( 1.000000000000000000, 0.0000000000000000000, 0.0000000000000000000 ) ) ;
#185 = DIRECTION ( 'NONE',  ( -1.000000000000000000, -0.0000000000000000000, -0.0000000000000000000 ) ) ;
#186 =( GEOMETRIC_REPRESENTATION_CONTEXT ( 3 ) GLOBAL_UNCERTAINTY_ASSIGNED_CONTEXT ( ( #64 ) ) GLOBAL_UNIT_ASSIGNED_CONTEXT ( ( #202, #90, #73 ) ) REPRESENTATION_CONTEXT ( 'NONE', 'WORKASPACE' ) );
#187 =( NAMED_UNIT ( * ) SI_UNIT ( $, .STERADIAN. ) SOLID_ANGLE_UNIT ( ) );
#188 = CONICAL_SURFACE ( 'NONE', #178, 2414.213562373056902, 1.178097245096166867 ) ;
#189 = DIRECTION ( 'NONE',  ( 1.000000000000000000, 0.0000000000000000000, 0.0000000000000000000 ) ) ;
#190 = STYLED_ITEM ( 'NONE', ( #96 ), #167 ) ;
#191 = MECHANICAL_DESIGN_GEOMETRIC_PRESENTATION_REPRESENTATION (  '', ( #102 ), #33 ) ;
#192 = DIRECTION ( 'NONE',  ( 1.000000000000000000, 0.0000000000000000000, 0.0000000000000000000 ) ) ;
#193 = SURFACE_STYLE_USAGE ( .BOTH. , #118 ) ;
#194 = EDGE_LOOP ( 'NONE', ( #92 ) ) ;
#195 = DIRECTION ( 'NONE',  ( 0.0000000000000000000, 0.0000000000000000000, -1.000000000000000000 ) ) ;
#196 = UNCERTAINTY_MEASURE_WITH_UNIT (LENGTH_MEASURE( 1.000000000000000082E-05 ), #204, 'distance_accuracy_value', 'NONE');
#197 =( NAMED_UNIT ( * ) SI_UNIT ( $, .STERADIAN. ) SOLID_ANGLE_UNIT ( ) );
#198 =( NAMED_UNIT ( * ) PLANE_ANGLE_UNIT ( ) SI_UNIT ( $, .RADIAN. ) );
#199 = EDGE_CURVE ( 'NONE', #11, #11, #166, .T. ) ;
#200 = DIRECTION ( 'NONE',  ( 1.000000000000000000, 0.0000000000000000000, 0.0000000000000000000 ) ) ;
#201 = EDGE_LOOP ( 'NONE', ( #117 ) ) ;
#202 =( LENGTH_UNIT ( ) NAMED_UNIT ( * ) SI_UNIT ( .MILLI., .METRE. ) );
#203 = MECHANICAL_DESIGN_GEOMETRIC_PRESENTATION_REPRESENTATION (  '', ( #180 ), #61 ) ;
#204 =( LENGTH_UNIT ( ) NAMED_UNIT ( * ) SI_UNIT ( .MILLI., .METRE. ) );
#205 = DIRECTION ( 'NONE',  ( 1.000000000000000000, 0.0000000000000000000, 0.0000000000000000000 ) ) ;
#206 = AXIS2_PLACEMENT_3D ( 'NONE', #160, #13, #47 ) ;
#207 =( NAMED_UNIT ( * ) SI_UNIT ( $, .STERADIAN. ) SOLID_ANGLE_UNIT ( ) );
#208 = STYLED_ITEM ( 'NONE', ( #3 ), #84 ) ;
#209 = PRODUCT_RELATED_PRODUCT_CATEGORY ( 'part', '', ( #121 ) ) ;
#210 = PRODUCT_DEFINITION_SHAPE ( 'NONE', 'NONE',  #52 ) ;
#211 = PRESENTATION_STYLE_ASSIGNMENT (( #23 ) ) ;
#212 = ADVANCED_FACE ( 'NONE', ( #99 ), #127, .T. ) ;
#213 = AXIS2_PLACEMENT_3D ( 'NONE', #83, #137, #36 ) ;
ENDSEC;
END-ISO-10303-21;
