ISO-10303-21;
HEADER;
FILE_DESCRIPTION (( 'STEP AP214' ),
    '1' );
FILE_NAME ('03-1691.STEP',
    '2021-10-01T05:40:40',
    ( 'USER' ),
    ( '' ),
    'SwSTEP 2.0',
    'SolidWorks 2018',
    '' );
FILE_SCHEMA (( 'AUTOMOTIVE_DESIGN' ));
ENDSEC;

DATA;
#1 = VERTEX_POINT ( 'NONE', #92 ) ;
#2 = EDGE_LOOP ( 'NONE', ( #161 ) ) ;
#3 = VERTEX_POINT ( 'NONE', #184 ) ;
#4 = CONICAL_SURFACE ( 'NONE', #199, 3.400000000000014122, 0.7853981633974418397 ) ;
#5 = CARTESIAN_POINT ( 'NONE',  ( -2.602374448188124857E-16, 0.0000000000000000000, 0.0000000000000000000 ) ) ;
#6 = UNCERTAINTY_MEASURE_WITH_UNIT (LENGTH_MEASURE( 1.000000000000000082E-05 ), #150, 'distance_accuracy_value', 'NONE');
#7 = DIRECTION ( 'NONE',  ( 0.0000000000000000000, 0.0000000000000000000, -1.000000000000000000 ) ) ;
#8 = EDGE_LOOP ( 'NONE', ( #198 ) ) ;
#9 = DIRECTION ( 'NONE',  ( 0.0000000000000000000, 0.0000000000000000000, 1.000000000000000000 ) ) ;
#10 = PRESENTATION_LAYER_ASSIGNMENT (  '', '', ( #19 ) ) ;
#11 =( LENGTH_UNIT ( ) NAMED_UNIT ( * ) SI_UNIT ( .MILLI., .METRE. ) );
#12 = APPLICATION_PROTOCOL_DEFINITION ( 'draft international standard', 'automotive_design', 1998, #164 ) ;
#13 = SURFACE_STYLE_FILL_AREA ( #109 ) ;
#14 = CIRCLE ( 'NONE', #136, 4.250000000000014211 ) ;
#15 =( GEOMETRIC_REPRESENTATION_CONTEXT ( 3 ) GLOBAL_UNCERTAINTY_ASSIGNED_CONTEXT ( ( #145 ) ) GLOBAL_UNIT_ASSIGNED_CONTEXT ( ( #11, #175, #26 ) ) REPRESENTATION_CONTEXT ( 'NONE', 'WORKASPACE' ) );
#16 = SURFACE_STYLE_FILL_AREA ( #40 ) ;
#17 = EDGE_LOOP ( 'NONE', ( #50 ) ) ;
#18 = AXIS2_PLACEMENT_3D ( 'NONE', #77, #139, #126 ) ;
#19 = STYLED_ITEM ( 'NONE', ( #25 ), #134 ) ;
#20 = SURFACE_STYLE_FILL_AREA ( #90 ) ;
#21 =( LENGTH_UNIT ( ) NAMED_UNIT ( * ) SI_UNIT ( .MILLI., .METRE. ) );
#22 = PLANE ( 'NONE',  #57 ) ;
#23 = AXIS2_PLACEMENT_3D ( 'NONE', #156, #61, #177 ) ;
#24 = ORIENTED_EDGE ( 'NONE', *, *, #123, .F. ) ;
#25 = PRESENTATION_STYLE_ASSIGNMENT (( #28 ) ) ;
#26 =( NAMED_UNIT ( * ) SI_UNIT ( $, .STERADIAN. ) SOLID_ANGLE_UNIT ( ) );
#27 =( LENGTH_UNIT ( ) NAMED_UNIT ( * ) SI_UNIT ( .MILLI., .METRE. ) );
#28 = SURFACE_STYLE_USAGE ( .BOTH. , #147 ) ;
#29 =( NAMED_UNIT ( * ) PLANE_ANGLE_UNIT ( ) SI_UNIT ( $, .RADIAN. ) );
#30 = COLOUR_RGB ( '',0.7921568627450980005, 0.8196078431372548767, 0.9333333333333333481 ) ;
#31 = PRODUCT_DEFINITION_FORMATION_WITH_SPECIFIED_SOURCE ( 'ANY', '', #151, .NOT_KNOWN. ) ;
#32 = CARTESIAN_POINT ( 'NONE',  ( 115.2395923599143259, 0.0000000000000000000, 0.0000000000000000000 ) ) ;
#33 = DIRECTION ( 'NONE',  ( 0.0000000000000000000, 0.0000000000000000000, -1.000000000000000000 ) ) ;
#34 = PRESENTATION_LAYER_ASSIGNMENT (  '', '', ( #51 ) ) ;
#35 = FILL_AREA_STYLE ('',( #210 ) ) ;
#36 = VERTEX_POINT ( 'NONE', #185 ) ;
#37 = VERTEX_POINT ( 'NONE', #153 ) ;
#38 = PRESENTATION_STYLE_ASSIGNMENT (( #102 ) ) ;
#39 = DIRECTION ( 'NONE',  ( -1.000000000000000000, -0.0000000000000000000, -0.0000000000000000000 ) ) ;
#40 = FILL_AREA_STYLE ('',( #203 ) ) ;
#41 = DIRECTION ( 'NONE',  ( 1.000000000000000000, 0.0000000000000000000, 0.0000000000000000000 ) ) ;
#42 = FACE_OUTER_BOUND ( 'NONE', #128, .T. ) ;
#43 = CARTESIAN_POINT ( 'NONE',  ( -883.0000000000000000, 0.0000000000000000000, 0.0000000000000000000 ) ) ;
#44 = DIRECTION ( 'NONE',  ( -1.000000000000000000, -0.0000000000000000000, -0.0000000000000000000 ) ) ;
#45 =( NAMED_UNIT ( * ) PLANE_ANGLE_UNIT ( ) SI_UNIT ( $, .RADIAN. ) );
#46 = UNCERTAINTY_MEASURE_WITH_UNIT (LENGTH_MEASURE( 1.000000000000000082E-05 ), #21, 'distance_accuracy_value', 'NONE');
#47 = DIRECTION ( 'NONE',  ( 0.0000000000000000000, 0.0000000000000000000, -1.000000000000000000 ) ) ;
#48 = MECHANICAL_DESIGN_GEOMETRIC_PRESENTATION_REPRESENTATION (  '', ( #19 ), #54 ) ;
#49 = ADVANCED_FACE ( 'NONE', ( #188 ), #91, .F. ) ;
#50 = ORIENTED_EDGE ( 'NONE', *, *, #110, .F. ) ;
#51 = STYLED_ITEM ( 'NONE', ( #38 ), #94 ) ;
#52 = DIRECTION ( 'NONE',  ( 1.000000000000000000, 0.0000000000000000000, 0.0000000000000000000 ) ) ;
#53 = FACE_OUTER_BOUND ( 'NONE', #174, .T. ) ;
#54 =( GEOMETRIC_REPRESENTATION_CONTEXT ( 3 ) GLOBAL_UNCERTAINTY_ASSIGNED_CONTEXT ( ( #82 ) ) GLOBAL_UNIT_ASSIGNED_CONTEXT ( ( #27, #154, #105 ) ) REPRESENTATION_CONTEXT ( 'NONE', 'WORKASPACE' ) );
#55 = CLOSED_SHELL ( 'NONE', ( #114, #112, #155 ) ) ;
#56 = FACE_OUTER_BOUND ( 'NONE', #8, .T. ) ;
#57 = AXIS2_PLACEMENT_3D ( 'NONE', #117, #41, #148 ) ;
#58 = DIRECTION ( 'NONE',  ( 0.0000000000000000000, 0.0000000000000000000, -1.000000000000000000 ) ) ;
#59 = PRODUCT_RELATED_PRODUCT_CATEGORY ( 'part', '', ( #151 ) ) ;
#60 = DIRECTION ( 'NONE',  ( 1.000000000000000000, 0.0000000000000000000, 0.0000000000000000000 ) ) ;
#61 = DIRECTION ( 'NONE',  ( 1.000000000000000000, 0.0000000000000000000, 0.0000000000000000000 ) ) ;
#62 = FILL_AREA_STYLE ('',( #124 ) ) ;
#63 = CONICAL_SURFACE ( 'NONE', #205, 2414.213562373060995, 1.178097245096167534 ) ;
#64 = DIRECTION ( 'NONE',  ( -1.000000000000000000, -0.0000000000000000000, -0.0000000000000000000 ) ) ;
#65 = CARTESIAN_POINT ( 'NONE',  ( 0.0000000000000000000, 0.0000000000000000000, 0.0000000000000000000 ) ) ;
#66 = CARTESIAN_POINT ( 'NONE',  ( 42.00000000000000711, 0.0000000000000000000, 0.0000000000000000000 ) ) ;
#67 = EDGE_CURVE ( 'NONE', #36, #36, #14, .T. ) ;
#68 =( NAMED_UNIT ( * ) PLANE_ANGLE_UNIT ( ) SI_UNIT ( $, .RADIAN. ) );
#69 = EDGE_LOOP ( 'NONE', ( #209 ) ) ;
#70 = COLOUR_RGB ( '',0.7921568627450980005, 0.8196078431372548767, 0.9333333333333333481 ) ;
#71 = SURFACE_SIDE_STYLE ('',( #13 ) ) ;
#72 =( LENGTH_UNIT ( ) NAMED_UNIT ( * ) SI_UNIT ( .MILLI., .METRE. ) );
#73 = PRESENTATION_STYLE_ASSIGNMENT (( #167 ) ) ;
#74 = MANIFOLD_SOLID_BREP ( 'ºÐÇÒ2[1]', #206 ) ;
#75 = COLOUR_RGB ( '',0.7921568627450980005, 0.8196078431372548767, 0.9333333333333333481 ) ;
#76 = ADVANCED_FACE ( 'NONE', ( #108, #121 ), #99, .T. ) ;
#77 = CARTESIAN_POINT ( 'NONE',  ( 0.0000000000000000000, 0.0000000000000000000, 0.0000000000000000000 ) ) ;
#78 = ORIENTED_EDGE ( 'NONE', *, *, #123, .T. ) ;
#79 = DIRECTION ( 'NONE',  ( 0.0000000000000000000, 0.0000000000000000000, 1.000000000000000000 ) ) ;
#80 = AXIS2_PLACEMENT_3D ( 'NONE', #208, #79, #52 ) ;
#81 = COLOUR_RGB ( '',1.000000000000000000, 1.000000000000000000, 0.0000000000000000000 ) ;
#82 = UNCERTAINTY_MEASURE_WITH_UNIT (LENGTH_MEASURE( 1.000000000000000082E-05 ), #27, 'distance_accuracy_value', 'NONE');
#83 = EDGE_CURVE ( 'NONE', #37, #37, #130, .T. ) ;
#84 = UNCERTAINTY_MEASURE_WITH_UNIT (LENGTH_MEASURE( 1.000000000000000082E-05 ), #72, 'distance_accuracy_value', 'NONE');
#85 = FACE_OUTER_BOUND ( 'NONE', #146, .T. ) ;
#86 = DIRECTION ( 'NONE',  ( 0.0000000000000000000, 0.0000000000000000000, 1.000000000000000000 ) ) ;
#87 = SURFACE_STYLE_USAGE ( .BOTH. , #163 ) ;
#88 = CIRCLE ( 'NONE', #23, 4.250000000000007105 ) ;
#89 = UNCERTAINTY_MEASURE_WITH_UNIT (LENGTH_MEASURE( 1.000000000000000082E-05 ), #106, 'distance_accuracy_value', 'NONE');
#90 = FILL_AREA_STYLE ('',( #111 ) ) ;
#91 = PLANE ( 'NONE',  #144 ) ;
#92 = CARTESIAN_POINT ( 'NONE',  ( 42.00000000000000711, 0.0000000000000000000, -4.250000000000007105 ) ) ;
#93 = COLOUR_RGB ( '',1.000000000000000000, 1.000000000000000000, 0.0000000000000000000 ) ;
#94 = MANIFOLD_SOLID_BREP ( 'ºÐÇÒ2[2]', #55 ) ;
#95 = PRODUCT_DEFINITION_CONTEXT ( 'detailed design', #140, 'design' ) ;
#96 = DIRECTION ( 'NONE',  ( 1.000000000000000000, 0.0000000000000000000, 0.0000000000000000000 ) ) ;
#97 = ORIENTED_EDGE ( 'NONE', *, *, #83, .F. ) ;
#98 = EDGE_CURVE ( 'NONE', #159, #159, #172, .T. ) ;
#99 = CYLINDRICAL_SURFACE ( 'NONE', #169, 4.250000000000007105 ) ;
#100 = ORIENTED_EDGE ( 'NONE', *, *, #67, .T. ) ;
#101 = SURFACE_STYLE_USAGE ( .BOTH. , #107 ) ;
#102 = SURFACE_STYLE_USAGE ( .BOTH. , #162 ) ;
#103 =( GEOMETRIC_REPRESENTATION_CONTEXT ( 3 ) GLOBAL_UNCERTAINTY_ASSIGNED_CONTEXT ( ( #6 ) ) GLOBAL_UNIT_ASSIGNED_CONTEXT ( ( #150, #45, #166 ) ) REPRESENTATION_CONTEXT ( 'NONE', 'WORKASPACE' ) );
#104 =( GEOMETRIC_REPRESENTATION_CONTEXT ( 3 ) GLOBAL_UNCERTAINTY_ASSIGNED_CONTEXT ( ( #89 ) ) GLOBAL_UNIT_ASSIGNED_CONTEXT ( ( #106, #68, #190 ) ) REPRESENTATION_CONTEXT ( 'NONE', 'WORKASPACE' ) );
#105 =( NAMED_UNIT ( * ) SI_UNIT ( $, .STERADIAN. ) SOLID_ANGLE_UNIT ( ) );
#106 =( LENGTH_UNIT ( ) NAMED_UNIT ( * ) SI_UNIT ( .MILLI., .METRE. ) );
#107 = SURFACE_SIDE_STYLE ('',( #20 ) ) ;
#108 = FACE_OUTER_BOUND ( 'NONE', #69, .T. ) ;
#109 = FILL_AREA_STYLE ('',( #165 ) ) ;
#110 = EDGE_CURVE ( 'NONE', #3, #3, #88, .T. ) ;
#111 = FILL_AREA_STYLE_COLOUR ( '', #75 ) ;
#112 = ADVANCED_FACE ( 'NONE', ( #85, #53 ), #158, .T. ) ;
#113 = CARTESIAN_POINT ( 'NONE',  ( -2.602374448188124857E-16, 4.249999999999999112, 0.0000000000000000000 ) ) ;
#114 = ADVANCED_FACE ( 'NONE', ( #176 ), #22, .F. ) ;
#115 =( GEOMETRIC_REPRESENTATION_CONTEXT ( 3 ) GLOBAL_UNCERTAINTY_ASSIGNED_CONTEXT ( ( #46 ) ) GLOBAL_UNIT_ASSIGNED_CONTEXT ( ( #21, #178, #191 ) ) REPRESENTATION_CONTEXT ( 'NONE', 'WORKASPACE' ) );
#116 = SURFACE_STYLE_FILL_AREA ( #35 ) ;
#117 = CARTESIAN_POINT ( 'NONE',  ( 42.00000000000000711, 0.0000000000000000000, 0.0000000000000000000 ) ) ;
#118 = APPLICATION_PROTOCOL_DEFINITION ( 'draft international standard', 'automotive_design', 1998, #140 ) ;
#119 = MECHANICAL_DESIGN_GEOMETRIC_PRESENTATION_REPRESENTATION (  '', ( #200 ), #103 ) ;
#120 = PRODUCT_DEFINITION ( 'UNKNOWN', '', #31, #95 ) ;
#121 = FACE_OUTER_BOUND ( 'NONE', #17, .T. ) ;
#122 = EDGE_LOOP ( 'NONE', ( #24 ) ) ;
#123 = EDGE_CURVE ( 'NONE', #1, #1, #201, .T. ) ;
#124 = FILL_AREA_STYLE_COLOUR ( '', #70 ) ;
#125 = DIRECTION ( 'NONE',  ( 0.0000000000000000000, 0.0000000000000000000, 1.000000000000000000 ) ) ;
#126 = DIRECTION ( 'NONE',  ( 0.0000000000000000000, 0.0000000000000000000, 1.000000000000000000 ) ) ;
#127 = DIRECTION ( 'NONE',  ( 1.000000000000000000, 0.0000000000000000000, 0.0000000000000000000 ) ) ;
#128 = EDGE_LOOP ( 'NONE', ( #186 ) ) ;
#129 = PRESENTATION_LAYER_ASSIGNMENT (  '', '', ( #200 ) ) ;
#130 = CIRCLE ( 'NONE', #141, 3.400000000000014122 ) ;
#131 = PRESENTATION_STYLE_ASSIGNMENT (( #87 ) ) ;
#132 = MECHANICAL_DESIGN_GEOMETRIC_PRESENTATION_REPRESENTATION (  '', ( #179 ), #115 ) ;
#133 = PRESENTATION_STYLE_ASSIGNMENT (( #101 ) ) ;
#134 = ADVANCED_BREP_SHAPE_REPRESENTATION ( '03-1691', ( #74, #94, #80 ), #143 ) ;
#135 = DIRECTION ( 'NONE',  ( 1.000000000000000000, 0.0000000000000000000, 0.0000000000000000000 ) ) ;
#136 = AXIS2_PLACEMENT_3D ( 'NONE', #32, #39, #125 ) ;
#137 = DIRECTION ( 'NONE',  ( 1.000000000000000000, 0.0000000000000000000, 0.0000000000000000000 ) ) ;
#138 = ADVANCED_FACE ( 'NONE', ( #142 ), #182, .T. ) ;
#139 = DIRECTION ( 'NONE',  ( -1.000000000000000000, -0.0000000000000000000, -0.0000000000000000000 ) ) ;
#140 = APPLICATION_CONTEXT ( 'automotive_design' ) ;
#141 = AXIS2_PLACEMENT_3D ( 'NONE', #5, #64, #33 ) ;
#142 = FACE_OUTER_BOUND ( 'NONE', #2, .T. ) ;
#143 =( GEOMETRIC_REPRESENTATION_CONTEXT ( 3 ) GLOBAL_UNCERTAINTY_ASSIGNED_CONTEXT ( ( #84 ) ) GLOBAL_UNIT_ASSIGNED_CONTEXT ( ( #72, #29, #212 ) ) REPRESENTATION_CONTEXT ( 'NONE', 'WORKASPACE' ) );
#144 = AXIS2_PLACEMENT_3D ( 'NONE', #113, #60, #58 ) ;
#145 = UNCERTAINTY_MEASURE_WITH_UNIT (LENGTH_MEASURE( 1.000000000000000082E-05 ), #11, 'distance_accuracy_value', 'NONE');
#146 = EDGE_LOOP ( 'NONE', ( #78 ) ) ;
#147 = SURFACE_SIDE_STYLE ('',( #16 ) ) ;
#148 = DIRECTION ( 'NONE',  ( 0.0000000000000000000, 0.0000000000000000000, -1.000000000000000000 ) ) ;
#149 = EDGE_LOOP ( 'NONE', ( #97 ) ) ;
#150 =( LENGTH_UNIT ( ) NAMED_UNIT ( * ) SI_UNIT ( .MILLI., .METRE. ) );
#151 = PRODUCT ( '03-1691', '03-1691', '', ( #157 ) ) ;
#152 = CARTESIAN_POINT ( 'NONE',  ( 0.8500000000000039746, 0.0000000000000000000, -4.250000000000007105 ) ) ;
#153 = CARTESIAN_POINT ( 'NONE',  ( -2.602374448188124857E-16, 0.0000000000000000000, -3.400000000000014122 ) ) ;
#154 =( NAMED_UNIT ( * ) PLANE_ANGLE_UNIT ( ) SI_UNIT ( $, .RADIAN. ) );
#155 = ADVANCED_FACE ( 'NONE', ( #42 ), #63, .T. ) ;
#156 = CARTESIAN_POINT ( 'NONE',  ( 42.00000000000000711, 0.0000000000000000000, 0.0000000000000000000 ) ) ;
#157 = PRODUCT_CONTEXT ( 'NONE', #164, 'mechanical' ) ;
#158 = CYLINDRICAL_SURFACE ( 'NONE', #18, 4.250000000000007105 ) ;
#159 = VERTEX_POINT ( 'NONE', #152 ) ;
#160 = MECHANICAL_DESIGN_GEOMETRIC_PRESENTATION_REPRESENTATION (  '', ( #51 ), #15 ) ;
#161 = ORIENTED_EDGE ( 'NONE', *, *, #110, .T. ) ;
#162 = SURFACE_SIDE_STYLE ('',( #195 ) ) ;
#163 = SURFACE_SIDE_STYLE ('',( #116 ) ) ;
#164 = APPLICATION_CONTEXT ( 'automotive_design' ) ;
#165 = FILL_AREA_STYLE_COLOUR ( '', #81 ) ;
#166 =( NAMED_UNIT ( * ) SI_UNIT ( $, .STERADIAN. ) SOLID_ANGLE_UNIT ( ) );
#167 = SURFACE_STYLE_USAGE ( .BOTH. , #71 ) ;
#168 = CARTESIAN_POINT ( 'NONE',  ( -2.602374448188124857E-16, 0.0000000000000000000, 0.0000000000000000000 ) ) ;
#169 = AXIS2_PLACEMENT_3D ( 'NONE', #65, #44, #86 ) ;
#170 = MECHANICAL_DESIGN_GEOMETRIC_PRESENTATION_REPRESENTATION (  '', ( #173 ), #104 ) ;
#171 = CARTESIAN_POINT ( 'NONE',  ( 0.8500000000000039746, 0.0000000000000000000, 0.0000000000000000000 ) ) ;
#172 = CIRCLE ( 'NONE', #189, 4.250000000000007105 ) ;
#173 = STYLED_ITEM ( 'NONE', ( #133 ), #74 ) ;
#174 = EDGE_LOOP ( 'NONE', ( #100 ) ) ;
#175 =( NAMED_UNIT ( * ) PLANE_ANGLE_UNIT ( ) SI_UNIT ( $, .RADIAN. ) );
#176 = FACE_OUTER_BOUND ( 'NONE', #122, .T. ) ;
#177 = DIRECTION ( 'NONE',  ( 0.0000000000000000000, 0.0000000000000000000, -1.000000000000000000 ) ) ;
#178 =( NAMED_UNIT ( * ) PLANE_ANGLE_UNIT ( ) SI_UNIT ( $, .RADIAN. ) );
#179 = STYLED_ITEM ( 'NONE', ( #131 ), #112 ) ;
#180 = EDGE_LOOP ( 'NONE', ( #193 ) ) ;
#181 = PRODUCT_DEFINITION_SHAPE ( 'NONE', 'NONE',  #120 ) ;
#182 = PLANE ( 'NONE',  #213 ) ;
#183 = AXIS2_PLACEMENT_3D ( 'NONE', #192, #127, #204 ) ;
#184 = CARTESIAN_POINT ( 'NONE',  ( 42.00000000000000711, 0.0000000000000000000, -4.250000000000007105 ) ) ;
#185 = CARTESIAN_POINT ( 'NONE',  ( 115.2395923599143259, 0.0000000000000000000, 4.250000000000014211 ) ) ;
#186 = ORIENTED_EDGE ( 'NONE', *, *, #67, .F. ) ;
#187 = DIRECTION ( 'NONE',  ( 0.0000000000000000000, 0.0000000000000000000, -1.000000000000000000 ) ) ;
#188 = FACE_OUTER_BOUND ( 'NONE', #180, .T. ) ;
#189 = AXIS2_PLACEMENT_3D ( 'NONE', #171, #96, #187 ) ;
#190 =( NAMED_UNIT ( * ) SI_UNIT ( $, .STERADIAN. ) SOLID_ANGLE_UNIT ( ) );
#191 =( NAMED_UNIT ( * ) SI_UNIT ( $, .STERADIAN. ) SOLID_ANGLE_UNIT ( ) );
#192 = CARTESIAN_POINT ( 'NONE',  ( 42.00000000000000711, 0.0000000000000000000, 0.0000000000000000000 ) ) ;
#193 = ORIENTED_EDGE ( 'NONE', *, *, #83, .T. ) ;
#194 = DIRECTION ( 'NONE',  ( -1.000000000000000000, -0.0000000000000000000, -0.0000000000000000000 ) ) ;
#195 = SURFACE_STYLE_FILL_AREA ( #62 ) ;
#196 = ADVANCED_FACE ( 'NONE', ( #56, #202 ), #4, .T. ) ;
#197 = PRESENTATION_LAYER_ASSIGNMENT (  '', '', ( #179 ) ) ;
#198 = ORIENTED_EDGE ( 'NONE', *, *, #98, .F. ) ;
#199 = AXIS2_PLACEMENT_3D ( 'NONE', #168, #137, #47 ) ;
#200 = STYLED_ITEM ( 'NONE', ( #73 ), #155 ) ;
#201 = CIRCLE ( 'NONE', #183, 4.250000000000007105 ) ;
#202 = FACE_BOUND ( 'NONE', #149, .T. ) ;
#203 = FILL_AREA_STYLE_COLOUR ( '', #30 ) ;
#204 = DIRECTION ( 'NONE',  ( 0.0000000000000000000, 0.0000000000000000000, -1.000000000000000000 ) ) ;
#205 = AXIS2_PLACEMENT_3D ( 'NONE', #43, #194, #9 ) ;
#206 = CLOSED_SHELL ( 'NONE', ( #76, #49, #196, #138 ) ) ;
#207 = SHAPE_DEFINITION_REPRESENTATION ( #181, #134 ) ;
#208 = CARTESIAN_POINT ( 'NONE',  ( 0.0000000000000000000, 0.0000000000000000000, 0.0000000000000000000 ) ) ;
#209 = ORIENTED_EDGE ( 'NONE', *, *, #98, .T. ) ;
#210 = FILL_AREA_STYLE_COLOUR ( '', #93 ) ;
#211 = PRESENTATION_LAYER_ASSIGNMENT (  '', '', ( #173 ) ) ;
#212 =( NAMED_UNIT ( * ) SI_UNIT ( $, .STERADIAN. ) SOLID_ANGLE_UNIT ( ) );
#213 = AXIS2_PLACEMENT_3D ( 'NONE', #66, #135, #7 ) ;
ENDSEC;
END-ISO-10303-21;
