ISO-10303-21;
HEADER;
FILE_DESCRIPTION (( 'STEP AP214' ),
    '1' );
FILE_NAME ('03-1692.STEP',
    '2021-10-01T05:40:59',
    ( 'USER' ),
    ( '' ),
    'SwSTEP 2.0',
    'SolidWorks 2018',
    '' );
FILE_SCHEMA (( 'AUTOMOTIVE_DESIGN' ));
ENDSEC;

DATA;
#1 = EDGE_LOOP ( 'NONE', ( #197 ) ) ;
#2 = COLOUR_RGB ( '',0.7921568627450980005, 0.8196078431372548767, 0.9333333333333333481 ) ;
#3 = CIRCLE ( 'NONE', #185, 4.300000000000007816 ) ;
#4 = DIRECTION ( 'NONE',  ( 0.0000000000000000000, 0.0000000000000000000, -1.000000000000000000 ) ) ;
#5 =( GEOMETRIC_REPRESENTATION_CONTEXT ( 3 ) GLOBAL_UNCERTAINTY_ASSIGNED_CONTEXT ( ( #106 ) ) GLOBAL_UNIT_ASSIGNED_CONTEXT ( ( #110, #141, #205 ) ) REPRESENTATION_CONTEXT ( 'NONE', 'WORKASPACE' ) );
#6 = COLOUR_RGB ( '',0.7921568627450980005, 0.8196078431372548767, 0.9333333333333333481 ) ;
#7 = UNCERTAINTY_MEASURE_WITH_UNIT (LENGTH_MEASURE( 1.000000000000000082E-05 ), #57, 'distance_accuracy_value', 'NONE');
#8 = DIRECTION ( 'NONE',  ( 0.0000000000000000000, 0.0000000000000000000, -1.000000000000000000 ) ) ;
#9 = DIRECTION ( 'NONE',  ( 0.0000000000000000000, 0.0000000000000000000, 1.000000000000000000 ) ) ;
#10 =( NAMED_UNIT ( * ) PLANE_ANGLE_UNIT ( ) SI_UNIT ( $, .RADIAN. ) );
#11 = ORIENTED_EDGE ( 'NONE', *, *, #187, .F. ) ;
#12 = CARTESIAN_POINT ( 'NONE',  ( 44.00000000000000000, 0.0000000000000000000, 0.0000000000000000000 ) ) ;
#13 = ADVANCED_FACE ( 'NONE', ( #112, #116 ), #14, .T. ) ;
#14 = CONICAL_SURFACE ( 'NONE', #77, 3.439999999999984848, 0.7853981633974503884 ) ;
#15 =( LENGTH_UNIT ( ) NAMED_UNIT ( * ) SI_UNIT ( .MILLI., .METRE. ) );
#16 = CLOSED_SHELL ( 'NONE', ( #165, #98, #42 ) ) ;
#17 = CARTESIAN_POINT ( 'NONE',  ( 44.00000000000000000, 0.0000000000000000000, 0.0000000000000000000 ) ) ;
#18 = PRESENTATION_LAYER_ASSIGNMENT (  '', '', ( #183 ) ) ;
#19 = CARTESIAN_POINT ( 'NONE',  ( 0.0000000000000000000, 0.0000000000000000000, 0.0000000000000000000 ) ) ;
#20 = FILL_AREA_STYLE ('',( #109 ) ) ;
#21 =( NAMED_UNIT ( * ) SI_UNIT ( $, .STERADIAN. ) SOLID_ANGLE_UNIT ( ) );
#22 = SURFACE_SIDE_STYLE ('',( #39 ) ) ;
#23 = MECHANICAL_DESIGN_GEOMETRIC_PRESENTATION_REPRESENTATION (  '', ( #131 ), #5 ) ;
#24 = SURFACE_STYLE_FILL_AREA ( #145 ) ;
#25 = DIRECTION ( 'NONE',  ( 0.0000000000000000000, 0.0000000000000000000, -1.000000000000000000 ) ) ;
#26 = ADVANCED_FACE ( 'NONE', ( #27, #82 ), #181, .T. ) ;
#27 = FACE_OUTER_BOUND ( 'NONE', #210, .T. ) ;
#28 =( GEOMETRIC_REPRESENTATION_CONTEXT ( 3 ) GLOBAL_UNCERTAINTY_ASSIGNED_CONTEXT ( ( #85 ) ) GLOBAL_UNIT_ASSIGNED_CONTEXT ( ( #130, #40, #200 ) ) REPRESENTATION_CONTEXT ( 'NONE', 'WORKASPACE' ) );
#29 = CIRCLE ( 'NONE', #105, 4.300000000000007816 ) ;
#30 = DIRECTION ( 'NONE',  ( 0.0000000000000000000, 0.0000000000000000000, -1.000000000000000000 ) ) ;
#31 =( NAMED_UNIT ( * ) PLANE_ANGLE_UNIT ( ) SI_UNIT ( $, .RADIAN. ) );
#32 = ORIENTED_EDGE ( 'NONE', *, *, #55, .T. ) ;
#33 = DIRECTION ( 'NONE',  ( 1.000000000000000000, 0.0000000000000000000, 0.0000000000000000000 ) ) ;
#34 = PRESENTATION_LAYER_ASSIGNMENT (  '', '', ( #100 ) ) ;
#35 = FILL_AREA_STYLE ('',( #203 ) ) ;
#36 = UNCERTAINTY_MEASURE_WITH_UNIT (LENGTH_MEASURE( 1.000000000000000082E-05 ), #156, 'distance_accuracy_value', 'NONE');
#37 = MECHANICAL_DESIGN_GEOMETRIC_PRESENTATION_REPRESENTATION (  '', ( #139 ), #28 ) ;
#38 = ORIENTED_EDGE ( 'NONE', *, *, #187, .T. ) ;
#39 = SURFACE_STYLE_FILL_AREA ( #91 ) ;
#40 =( NAMED_UNIT ( * ) PLANE_ANGLE_UNIT ( ) SI_UNIT ( $, .RADIAN. ) );
#41 = DIRECTION ( 'NONE',  ( 1.000000000000000000, 0.0000000000000000000, 0.0000000000000000000 ) ) ;
#42 = ADVANCED_FACE ( 'NONE', ( #189 ), #65, .T. ) ;
#43 = VERTEX_POINT ( 'NONE', #132 ) ;
#44 = PLANE ( 'NONE',  #206 ) ;
#45 = UNCERTAINTY_MEASURE_WITH_UNIT (LENGTH_MEASURE( 1.000000000000000082E-05 ), #15, 'distance_accuracy_value', 'NONE');
#46 =( NAMED_UNIT ( * ) SI_UNIT ( $, .STERADIAN. ) SOLID_ANGLE_UNIT ( ) );
#47 = MECHANICAL_DESIGN_GEOMETRIC_PRESENTATION_REPRESENTATION (  '', ( #183 ), #154 ) ;
#48 = VERTEX_POINT ( 'NONE', #163 ) ;
#49 = PRODUCT_RELATED_PRODUCT_CATEGORY ( 'part', '', ( #170 ) ) ;
#50 =( LENGTH_UNIT ( ) NAMED_UNIT ( * ) SI_UNIT ( .MILLI., .METRE. ) );
#51 = CARTESIAN_POINT ( 'NONE',  ( -2.632990618166809235E-16, 0.0000000000000000000, 0.0000000000000000000 ) ) ;
#52 = PRESENTATION_LAYER_ASSIGNMENT (  '', '', ( #139 ) ) ;
#53 = SURFACE_STYLE_USAGE ( .BOTH. , #70 ) ;
#54 = PRESENTATION_STYLE_ASSIGNMENT (( #147 ) ) ;
#55 = EDGE_CURVE ( 'NONE', #103, #103, #125, .T. ) ;
#56 = EDGE_LOOP ( 'NONE', ( #11 ) ) ;
#57 =( LENGTH_UNIT ( ) NAMED_UNIT ( * ) SI_UNIT ( .MILLI., .METRE. ) );
#58 = PRODUCT_DEFINITION_SHAPE ( 'NONE', 'NONE',  #72 ) ;
#59 = CARTESIAN_POINT ( 'NONE',  ( 0.0000000000000000000, 0.0000000000000000000, 0.0000000000000000000 ) ) ;
#60 = STYLED_ITEM ( 'NONE', ( #99 ), #166 ) ;
#61 = PRODUCT_DEFINITION_FORMATION_WITH_SPECIFIED_SOURCE ( 'ANY', '', #170, .NOT_KNOWN. ) ;
#62 = AXIS2_PLACEMENT_3D ( 'NONE', #169, #81, #66 ) ;
#63 = APPLICATION_CONTEXT ( 'automotive_design' ) ;
#64 = PRESENTATION_STYLE_ASSIGNMENT (( #191 ) ) ;
#65 = CONICAL_SURFACE ( 'NONE', #153, 2414.213562373047807, 1.178097245096165535 ) ;
#66 = DIRECTION ( 'NONE',  ( 0.0000000000000000000, 0.0000000000000000000, -1.000000000000000000 ) ) ;
#67 = EDGE_CURVE ( 'NONE', #48, #48, #160, .T. ) ;
#68 = SURFACE_STYLE_USAGE ( .BOTH. , #84 ) ;
#69 = SHAPE_DEFINITION_REPRESENTATION ( #58, #166 ) ;
#70 = SURFACE_SIDE_STYLE ('',( #152 ) ) ;
#71 = MECHANICAL_DESIGN_GEOMETRIC_PRESENTATION_REPRESENTATION (  '', ( #100 ), #119 ) ;
#72 = PRODUCT_DEFINITION ( 'UNKNOWN', '', #61, #186 ) ;
#73 = CARTESIAN_POINT ( 'NONE',  ( 123.2188816817956507, 0.0000000000000000000, 0.0000000000000000000 ) ) ;
#74 = DIRECTION ( 'NONE',  ( 1.000000000000000000, 0.0000000000000000000, 0.0000000000000000000 ) ) ;
#75 = ORIENTED_EDGE ( 'NONE', *, *, #67, .F. ) ;
#76 = APPLICATION_CONTEXT ( 'automotive_design' ) ;
#77 = AXIS2_PLACEMENT_3D ( 'NONE', #136, #33, #4 ) ;
#78 = FILL_AREA_STYLE ('',( #201 ) ) ;
#79 = ORIENTED_EDGE ( 'NONE', *, *, #55, .F. ) ;
#80 = AXIS2_PLACEMENT_3D ( 'NONE', #190, #108, #104 ) ;
#81 = DIRECTION ( 'NONE',  ( 1.000000000000000000, 0.0000000000000000000, 0.0000000000000000000 ) ) ;
#82 = FACE_OUTER_BOUND ( 'NONE', #148, .T. ) ;
#83 = AXIS2_PLACEMENT_3D ( 'NONE', #59, #9, #113 ) ;
#84 = SURFACE_SIDE_STYLE ('',( #93 ) ) ;
#85 = UNCERTAINTY_MEASURE_WITH_UNIT (LENGTH_MEASURE( 1.000000000000000082E-05 ), #130, 'distance_accuracy_value', 'NONE');
#86 = AXIS2_PLACEMENT_3D ( 'NONE', #73, #213, #107 ) ;
#87 = ORIENTED_EDGE ( 'NONE', *, *, #195, .T. ) ;
#88 = CARTESIAN_POINT ( 'NONE',  ( -875.0000000000000000, 0.0000000000000000000, 0.0000000000000000000 ) ) ;
#89 = ORIENTED_EDGE ( 'NONE', *, *, #195, .F. ) ;
#90 = PRESENTATION_STYLE_ASSIGNMENT (( #53 ) ) ;
#91 = FILL_AREA_STYLE ('',( #161 ) ) ;
#92 = CARTESIAN_POINT ( 'NONE',  ( 0.8600000000000191935, 0.0000000000000000000, 0.0000000000000000000 ) ) ;
#93 = SURFACE_STYLE_FILL_AREA ( #35 ) ;
#94 = SURFACE_SIDE_STYLE ('',( #24 ) ) ;
#95 = FACE_OUTER_BOUND ( 'NONE', #173, .T. ) ;
#96 = AXIS2_PLACEMENT_3D ( 'NONE', #17, #204, #157 ) ;
#97 = CARTESIAN_POINT ( 'NONE',  ( 0.8600000000000191935, 0.0000000000000000000, -4.300000000000007816 ) ) ;
#98 = ADVANCED_FACE ( 'NONE', ( #133, #135 ), #198, .T. ) ;
#99 = PRESENTATION_STYLE_ASSIGNMENT (( #179 ) ) ;
#100 = STYLED_ITEM ( 'NONE', ( #192 ), #98 ) ;
#101 = EDGE_LOOP ( 'NONE', ( #32 ) ) ;
#102 = EDGE_LOOP ( 'NONE', ( #117 ) ) ;
#103 = VERTEX_POINT ( 'NONE', #121 ) ;
#104 = DIRECTION ( 'NONE',  ( 0.0000000000000000000, 0.0000000000000000000, 1.000000000000000000 ) ) ;
#105 = AXIS2_PLACEMENT_3D ( 'NONE', #92, #74, #8 ) ;
#106 = UNCERTAINTY_MEASURE_WITH_UNIT (LENGTH_MEASURE( 1.000000000000000082E-05 ), #110, 'distance_accuracy_value', 'NONE');
#107 = DIRECTION ( 'NONE',  ( 0.0000000000000000000, 0.0000000000000000000, 1.000000000000000000 ) ) ;
#108 = DIRECTION ( 'NONE',  ( -1.000000000000000000, -0.0000000000000000000, -0.0000000000000000000 ) ) ;
#109 = FILL_AREA_STYLE_COLOUR ( '', #171 ) ;
#110 =( LENGTH_UNIT ( ) NAMED_UNIT ( * ) SI_UNIT ( .MILLI., .METRE. ) );
#111 = EDGE_LOOP ( 'NONE', ( #79 ) ) ;
#112 = FACE_OUTER_BOUND ( 'NONE', #56, .T. ) ;
#113 = DIRECTION ( 'NONE',  ( 1.000000000000000000, 0.0000000000000000000, 0.0000000000000000000 ) ) ;
#114 = ADVANCED_FACE ( 'NONE', ( #95 ), #188, .T. ) ;
#115 = DIRECTION ( 'NONE',  ( 1.000000000000000000, 0.0000000000000000000, 0.0000000000000000000 ) ) ;
#116 = FACE_BOUND ( 'NONE', #111, .T. ) ;
#117 = ORIENTED_EDGE ( 'NONE', *, *, #175, .T. ) ;
#118 = SURFACE_STYLE_FILL_AREA ( #78 ) ;
#119 =( GEOMETRIC_REPRESENTATION_CONTEXT ( 3 ) GLOBAL_UNCERTAINTY_ASSIGNED_CONTEXT ( ( #212 ) ) GLOBAL_UNIT_ASSIGNED_CONTEXT ( ( #50, #138, #120 ) ) REPRESENTATION_CONTEXT ( 'NONE', 'WORKASPACE' ) );
#120 =( NAMED_UNIT ( * ) SI_UNIT ( $, .STERADIAN. ) SOLID_ANGLE_UNIT ( ) );
#121 = CARTESIAN_POINT ( 'NONE',  ( -2.632990618166809235E-16, 0.0000000000000000000, -3.439999999999984848 ) ) ;
#122 =( GEOMETRIC_REPRESENTATION_CONTEXT ( 3 ) GLOBAL_UNCERTAINTY_ASSIGNED_CONTEXT ( ( #7 ) ) GLOBAL_UNIT_ASSIGNED_CONTEXT ( ( #57, #146, #21 ) ) REPRESENTATION_CONTEXT ( 'NONE', 'WORKASPACE' ) );
#123 = DIRECTION ( 'NONE',  ( 0.0000000000000000000, 0.0000000000000000000, 1.000000000000000000 ) ) ;
#124 = DIRECTION ( 'NONE',  ( -1.000000000000000000, -0.0000000000000000000, -0.0000000000000000000 ) ) ;
#125 = CIRCLE ( 'NONE', #172, 3.439999999999984848 ) ;
#126 = AXIS2_PLACEMENT_3D ( 'NONE', #176, #142, #199 ) ;
#127 = PLANE ( 'NONE',  #62 ) ;
#128 = EDGE_LOOP ( 'NONE', ( #151 ) ) ;
#129 = VERTEX_POINT ( 'NONE', #97 ) ;
#130 =( LENGTH_UNIT ( ) NAMED_UNIT ( * ) SI_UNIT ( .MILLI., .METRE. ) );
#131 = STYLED_ITEM ( 'NONE', ( #64 ), #143 ) ;
#132 = CARTESIAN_POINT ( 'NONE',  ( 44.00000000000000000, 0.0000000000000000000, -4.300000000000007816 ) ) ;
#133 = FACE_OUTER_BOUND ( 'NONE', #102, .T. ) ;
#134 = MECHANICAL_DESIGN_GEOMETRIC_PRESENTATION_REPRESENTATION (  '', ( #60 ), #122 ) ;
#135 = FACE_OUTER_BOUND ( 'NONE', #1, .T. ) ;
#136 = CARTESIAN_POINT ( 'NONE',  ( -2.632990618166809235E-16, 0.0000000000000000000, 0.0000000000000000000 ) ) ;
#137 = EDGE_LOOP ( 'NONE', ( #75 ) ) ;
#138 =( NAMED_UNIT ( * ) PLANE_ANGLE_UNIT ( ) SI_UNIT ( $, .RADIAN. ) );
#139 = STYLED_ITEM ( 'NONE', ( #54 ), #182 ) ;
#140 =( NAMED_UNIT ( * ) SI_UNIT ( $, .STERADIAN. ) SOLID_ANGLE_UNIT ( ) );
#141 =( NAMED_UNIT ( * ) PLANE_ANGLE_UNIT ( ) SI_UNIT ( $, .RADIAN. ) );
#142 = DIRECTION ( 'NONE',  ( 1.000000000000000000, 0.0000000000000000000, 0.0000000000000000000 ) ) ;
#143 = MANIFOLD_SOLID_BREP ( 'ºÐÇÒ2[1]', #168 ) ;
#144 = PRESENTATION_LAYER_ASSIGNMENT (  '', '', ( #60 ) ) ;
#145 = FILL_AREA_STYLE ('',( #207 ) ) ;
#146 =( NAMED_UNIT ( * ) PLANE_ANGLE_UNIT ( ) SI_UNIT ( $, .RADIAN. ) );
#147 = SURFACE_STYLE_USAGE ( .BOTH. , #22 ) ;
#148 = EDGE_LOOP ( 'NONE', ( #89 ) ) ;
#149 = DIRECTION ( 'NONE',  ( 0.0000000000000000000, 0.0000000000000000000, 1.000000000000000000 ) ) ;
#150 = APPLICATION_PROTOCOL_DEFINITION ( 'draft international standard', 'automotive_design', 1998, #63 ) ;
#151 = ORIENTED_EDGE ( 'NONE', *, *, #175, .F. ) ;
#152 = SURFACE_STYLE_FILL_AREA ( #20 ) ;
#153 = AXIS2_PLACEMENT_3D ( 'NONE', #88, #124, #123 ) ;
#154 =( GEOMETRIC_REPRESENTATION_CONTEXT ( 3 ) GLOBAL_UNCERTAINTY_ASSIGNED_CONTEXT ( ( #36 ) ) GLOBAL_UNIT_ASSIGNED_CONTEXT ( ( #156, #31, #140 ) ) REPRESENTATION_CONTEXT ( 'NONE', 'WORKASPACE' ) );
#155 = DIRECTION ( 'NONE',  ( -1.000000000000000000, -0.0000000000000000000, -0.0000000000000000000 ) ) ;
#156 =( LENGTH_UNIT ( ) NAMED_UNIT ( * ) SI_UNIT ( .MILLI., .METRE. ) );
#157 = DIRECTION ( 'NONE',  ( 0.0000000000000000000, 0.0000000000000000000, -1.000000000000000000 ) ) ;
#158 = FACE_OUTER_BOUND ( 'NONE', #101, .T. ) ;
#159 = FACE_OUTER_BOUND ( 'NONE', #128, .T. ) ;
#160 = CIRCLE ( 'NONE', #86, 4.300000000000014921 ) ;
#161 = FILL_AREA_STYLE_COLOUR ( '', #211 ) ;
#162 = COLOUR_RGB ( '',1.000000000000000000, 1.000000000000000000, 0.0000000000000000000 ) ;
#163 = CARTESIAN_POINT ( 'NONE',  ( 123.2188816817956507, 0.0000000000000000000, 4.300000000000014921 ) ) ;
#164 = CARTESIAN_POINT ( 'NONE',  ( 44.00000000000000000, 0.0000000000000000000, 0.0000000000000000000 ) ) ;
#165 = ADVANCED_FACE ( 'NONE', ( #159 ), #44, .F. ) ;
#166 = ADVANCED_BREP_SHAPE_REPRESENTATION ( '03-1692', ( #143, #182, #83 ), #167 ) ;
#167 =( GEOMETRIC_REPRESENTATION_CONTEXT ( 3 ) GLOBAL_UNCERTAINTY_ASSIGNED_CONTEXT ( ( #45 ) ) GLOBAL_UNIT_ASSIGNED_CONTEXT ( ( #15, #10, #46 ) ) REPRESENTATION_CONTEXT ( 'NONE', 'WORKASPACE' ) );
#168 = CLOSED_SHELL ( 'NONE', ( #26, #180, #13, #114 ) ) ;
#169 = CARTESIAN_POINT ( 'NONE',  ( -2.632990618166809235E-16, 4.300000000000000711, 0.0000000000000000000 ) ) ;
#170 = PRODUCT ( '03-1692', '03-1692', '', ( #193 ) ) ;
#171 = COLOUR_RGB ( '',1.000000000000000000, 1.000000000000000000, 0.0000000000000000000 ) ;
#172 = AXIS2_PLACEMENT_3D ( 'NONE', #51, #155, #30 ) ;
#173 = EDGE_LOOP ( 'NONE', ( #87 ) ) ;
#174 = DIRECTION ( 'NONE',  ( -1.000000000000000000, -0.0000000000000000000, -0.0000000000000000000 ) ) ;
#175 = EDGE_CURVE ( 'NONE', #43, #43, #209, .T. ) ;
#176 = CARTESIAN_POINT ( 'NONE',  ( 44.00000000000000000, 0.0000000000000000000, 0.0000000000000000000 ) ) ;
#177 = PRESENTATION_LAYER_ASSIGNMENT (  '', '', ( #131 ) ) ;
#178 = APPLICATION_PROTOCOL_DEFINITION ( 'draft international standard', 'automotive_design', 1998, #76 ) ;
#179 = SURFACE_STYLE_USAGE ( .BOTH. , #94 ) ;
#180 = ADVANCED_FACE ( 'NONE', ( #158 ), #127, .F. ) ;
#181 = CYLINDRICAL_SURFACE ( 'NONE', #202, 4.300000000000007816 ) ;
#182 = MANIFOLD_SOLID_BREP ( 'ºÐÇÒ2[2]', #16 ) ;
#183 = STYLED_ITEM ( 'NONE', ( #90 ), #42 ) ;
#184 = SURFACE_SIDE_STYLE ('',( #118 ) ) ;
#185 = AXIS2_PLACEMENT_3D ( 'NONE', #12, #115, #208 ) ;
#186 = PRODUCT_DEFINITION_CONTEXT ( 'detailed design', #76, 'design' ) ;
#187 = EDGE_CURVE ( 'NONE', #129, #129, #29, .T. ) ;
#188 = PLANE ( 'NONE',  #96 ) ;
#189 = FACE_OUTER_BOUND ( 'NONE', #137, .T. ) ;
#190 = CARTESIAN_POINT ( 'NONE',  ( 0.0000000000000000000, 0.0000000000000000000, 0.0000000000000000000 ) ) ;
#191 = SURFACE_STYLE_USAGE ( .BOTH. , #184 ) ;
#192 = PRESENTATION_STYLE_ASSIGNMENT (( #68 ) ) ;
#193 = PRODUCT_CONTEXT ( 'NONE', #63, 'mechanical' ) ;
#194 = CARTESIAN_POINT ( 'NONE',  ( 44.00000000000000000, 0.0000000000000000000, -4.300000000000007816 ) ) ;
#195 = EDGE_CURVE ( 'NONE', #196, #196, #3, .T. ) ;
#196 = VERTEX_POINT ( 'NONE', #194 ) ;
#197 = ORIENTED_EDGE ( 'NONE', *, *, #67, .T. ) ;
#198 = CYLINDRICAL_SURFACE ( 'NONE', #80, 4.300000000000007816 ) ;
#199 = DIRECTION ( 'NONE',  ( 0.0000000000000000000, 0.0000000000000000000, -1.000000000000000000 ) ) ;
#200 =( NAMED_UNIT ( * ) SI_UNIT ( $, .STERADIAN. ) SOLID_ANGLE_UNIT ( ) );
#201 = FILL_AREA_STYLE_COLOUR ( '', #6 ) ;
#202 = AXIS2_PLACEMENT_3D ( 'NONE', #19, #174, #149 ) ;
#203 = FILL_AREA_STYLE_COLOUR ( '', #162 ) ;
#204 = DIRECTION ( 'NONE',  ( 1.000000000000000000, 0.0000000000000000000, 0.0000000000000000000 ) ) ;
#205 =( NAMED_UNIT ( * ) SI_UNIT ( $, .STERADIAN. ) SOLID_ANGLE_UNIT ( ) );
#206 = AXIS2_PLACEMENT_3D ( 'NONE', #164, #41, #25 ) ;
#207 = FILL_AREA_STYLE_COLOUR ( '', #2 ) ;
#208 = DIRECTION ( 'NONE',  ( 0.0000000000000000000, 0.0000000000000000000, -1.000000000000000000 ) ) ;
#209 = CIRCLE ( 'NONE', #126, 4.300000000000007816 ) ;
#210 = EDGE_LOOP ( 'NONE', ( #38 ) ) ;
#211 = COLOUR_RGB ( '',0.7921568627450980005, 0.8196078431372548767, 0.9333333333333333481 ) ;
#212 = UNCERTAINTY_MEASURE_WITH_UNIT (LENGTH_MEASURE( 1.000000000000000082E-05 ), #50, 'distance_accuracy_value', 'NONE');
#213 = DIRECTION ( 'NONE',  ( -1.000000000000000000, -0.0000000000000000000, -0.0000000000000000000 ) ) ;
ENDSEC;
END-ISO-10303-21;
