ISO-10303-21;
HEADER;
FILE_DESCRIPTION (( 'STEP AP214' ),
    '1' );
FILE_NAME ('03-1694.STEP',
    '2021-10-01T05:41:36',
    ( 'USER' ),
    ( '' ),
    'SwSTEP 2.0',
    'SolidWorks 2018',
    '' );
FILE_SCHEMA (( 'AUTOMOTIVE_DESIGN' ));
ENDSEC;

DATA;
#1 = VERTEX_POINT ( 'NONE', #103 ) ;
#2 = VERTEX_POINT ( 'NONE', #11 ) ;
#3 = VERTEX_POINT ( 'NONE', #23 ) ;
#4 = ADVANCED_FACE ( 'NONE', ( #179, #161 ), #126, .T. ) ;
#5 = CARTESIAN_POINT ( 'NONE',  ( 44.00000000000000000, 0.0000000000000000000, 0.0000000000000000000 ) ) ;
#6 = PRESENTATION_LAYER_ASSIGNMENT (  '', '', ( #207 ) ) ;
#7 = ORIENTED_EDGE ( 'NONE', *, *, #172, .T. ) ;
#8 = CARTESIAN_POINT ( 'NONE',  ( -875.0000000000000000, 0.0000000000000000000, 0.0000000000000000000 ) ) ;
#9 = COLOUR_RGB ( '',1.000000000000000000, 1.000000000000000000, 0.0000000000000000000 ) ;
#10 = FILL_AREA_STYLE ('',( #144 ) ) ;
#11 = CARTESIAN_POINT ( 'NONE',  ( 0.8800000000000324230, 0.0000000000000000000, -4.400000000000008349 ) ) ;
#12 = FACE_OUTER_BOUND ( 'NONE', #74, .T. ) ;
#13 = DIRECTION ( 'NONE',  ( -1.000000000000000000, -0.0000000000000000000, -0.0000000000000000000 ) ) ;
#14 = MECHANICAL_DESIGN_GEOMETRIC_PRESENTATION_REPRESENTATION (  '', ( #207 ), #169 ) ;
#15 = ORIENTED_EDGE ( 'NONE', *, *, #163, .T. ) ;
#16 = PLANE ( 'NONE',  #112 ) ;
#17 = SURFACE_SIDE_STYLE ('',( #77 ) ) ;
#18 =( NAMED_UNIT ( * ) SI_UNIT ( $, .STERADIAN. ) SOLID_ANGLE_UNIT ( ) );
#19 = FILL_AREA_STYLE ('',( #124 ) ) ;
#20 =( NAMED_UNIT ( * ) SI_UNIT ( $, .STERADIAN. ) SOLID_ANGLE_UNIT ( ) );
#21 = CARTESIAN_POINT ( 'NONE',  ( 44.00000000000000000, 0.0000000000000000000, -4.400000000000008349 ) ) ;
#22 = DIRECTION ( 'NONE',  ( 0.0000000000000000000, 0.0000000000000000000, -1.000000000000000000 ) ) ;
#23 = CARTESIAN_POINT ( 'NONE',  ( -2.694222958124177006E-16, 0.0000000000000000000, -3.519999999999981366 ) ) ;
#24 = EDGE_LOOP ( 'NONE', ( #62 ) ) ;
#25 = CIRCLE ( 'NONE', #60, 3.519999999999981366 ) ;
#26 = DIRECTION ( 'NONE',  ( -1.000000000000000000, -0.0000000000000000000, -0.0000000000000000000 ) ) ;
#27 =( NAMED_UNIT ( * ) SI_UNIT ( $, .STERADIAN. ) SOLID_ANGLE_UNIT ( ) );
#28 = EDGE_LOOP ( 'NONE', ( #102 ) ) ;
#29 = DIRECTION ( 'NONE',  ( 1.000000000000000000, 0.0000000000000000000, 0.0000000000000000000 ) ) ;
#30 = CARTESIAN_POINT ( 'NONE',  ( 44.00000000000000000, 0.0000000000000000000, 0.0000000000000000000 ) ) ;
#31 = DIRECTION ( 'NONE',  ( 0.0000000000000000000, 0.0000000000000000000, 1.000000000000000000 ) ) ;
#32 = APPLICATION_CONTEXT ( 'automotive_design' ) ;
#33 = CARTESIAN_POINT ( 'NONE',  ( 0.0000000000000000000, 0.0000000000000000000, 0.0000000000000000000 ) ) ;
#34 = UNCERTAINTY_MEASURE_WITH_UNIT (LENGTH_MEASURE( 1.000000000000000082E-05 ), #192, 'distance_accuracy_value', 'NONE');
#35 = AXIS2_PLACEMENT_3D ( 'NONE', #75, #51, #150 ) ;
#36 =( NAMED_UNIT ( * ) PLANE_ANGLE_UNIT ( ) SI_UNIT ( $, .RADIAN. ) );
#37 = EDGE_LOOP ( 'NONE', ( #7 ) ) ;
#38 =( LENGTH_UNIT ( ) NAMED_UNIT ( * ) SI_UNIT ( .MILLI., .METRE. ) );
#39 = APPLICATION_PROTOCOL_DEFINITION ( 'draft international standard', 'automotive_design', 1998, #32 ) ;
#40 = AXIS2_PLACEMENT_3D ( 'NONE', #208, #184, #206 ) ;
#41 = DIRECTION ( 'NONE',  ( 1.000000000000000000, 0.0000000000000000000, 0.0000000000000000000 ) ) ;
#42 = MANIFOLD_SOLID_BREP ( 'ºÐÇÒ2[1]', #68 ) ;
#43 = DIRECTION ( 'NONE',  ( 0.0000000000000000000, 0.0000000000000000000, -1.000000000000000000 ) ) ;
#44 = DIRECTION ( 'NONE',  ( 0.0000000000000000000, 0.0000000000000000000, 1.000000000000000000 ) ) ;
#45 = FACE_OUTER_BOUND ( 'NONE', #188, .T. ) ;
#46 = CARTESIAN_POINT ( 'NONE',  ( 44.00000000000000000, 0.0000000000000000000, -4.400000000000008349 ) ) ;
#47 = STYLED_ITEM ( 'NONE', ( #71 ), #42 ) ;
#48 = COLOUR_RGB ( '',0.7921568627450980005, 0.8196078431372548767, 0.9333333333333333481 ) ;
#49 = AXIS2_PLACEMENT_3D ( 'NONE', #148, #13, #31 ) ;
#50 = DIRECTION ( 'NONE',  ( 0.0000000000000000000, 0.0000000000000000000, -1.000000000000000000 ) ) ;
#51 = DIRECTION ( 'NONE',  ( 1.000000000000000000, 0.0000000000000000000, 0.0000000000000000000 ) ) ;
#52 = UNCERTAINTY_MEASURE_WITH_UNIT (LENGTH_MEASURE( 1.000000000000000082E-05 ), #162, 'distance_accuracy_value', 'NONE');
#53 = ORIENTED_EDGE ( 'NONE', *, *, #156, .F. ) ;
#54 = ADVANCED_FACE ( 'NONE', ( #45 ), #92, .F. ) ;
#55 = AXIS2_PLACEMENT_3D ( 'NONE', #8, #66, #203 ) ;
#56 = SURFACE_SIDE_STYLE ('',( #57 ) ) ;
#57 = SURFACE_STYLE_FILL_AREA ( #155 ) ;
#58 = ORIENTED_EDGE ( 'NONE', *, *, #172, .F. ) ;
#59 =( NAMED_UNIT ( * ) SI_UNIT ( $, .STERADIAN. ) SOLID_ANGLE_UNIT ( ) );
#60 = AXIS2_PLACEMENT_3D ( 'NONE', #178, #26, #43 ) ;
#61 =( LENGTH_UNIT ( ) NAMED_UNIT ( * ) SI_UNIT ( .MILLI., .METRE. ) );
#62 = ORIENTED_EDGE ( 'NONE', *, *, #156, .T. ) ;
#63 = PRODUCT_DEFINITION_CONTEXT ( 'detailed design', #70, 'design' ) ;
#64 = DIRECTION ( 'NONE',  ( 1.000000000000000000, 0.0000000000000000000, 0.0000000000000000000 ) ) ;
#65 = PRODUCT_CONTEXT ( 'NONE', #32, 'mechanical' ) ;
#66 = DIRECTION ( 'NONE',  ( -1.000000000000000000, -0.0000000000000000000, -0.0000000000000000000 ) ) ;
#67 = PRESENTATION_STYLE_ASSIGNMENT (( #93 ) ) ;
#68 = CLOSED_SHELL ( 'NONE', ( #125, #200, #154, #137 ) ) ;
#69 = MECHANICAL_DESIGN_GEOMETRIC_PRESENTATION_REPRESENTATION (  '', ( #183 ), #118 ) ;
#70 = APPLICATION_CONTEXT ( 'automotive_design' ) ;
#71 = PRESENTATION_STYLE_ASSIGNMENT (( #182 ) ) ;
#72 =( NAMED_UNIT ( * ) PLANE_ANGLE_UNIT ( ) SI_UNIT ( $, .RADIAN. ) );
#73 = APPLICATION_PROTOCOL_DEFINITION ( 'draft international standard', 'automotive_design', 1998, #70 ) ;
#74 = EDGE_LOOP ( 'NONE', ( #15 ) ) ;
#75 = CARTESIAN_POINT ( 'NONE',  ( 44.00000000000000000, 0.0000000000000000000, 0.0000000000000000000 ) ) ;
#76 = ORIENTED_EDGE ( 'NONE', *, *, #195, .F. ) ;
#77 = SURFACE_STYLE_FILL_AREA ( #180 ) ;
#78 = FILL_AREA_STYLE ('',( #80 ) ) ;
#79 = ADVANCED_FACE ( 'NONE', ( #128 ), #82, .T. ) ;
#80 = FILL_AREA_STYLE_COLOUR ( '', #48 ) ;
#81 = FILL_AREA_STYLE_COLOUR ( '', #9 ) ;
#82 = CONICAL_SURFACE ( 'NONE', #55, 2414.213562373075092, 1.178097245096169532 ) ;
#83 = PRESENTATION_STYLE_ASSIGNMENT (( #94 ) ) ;
#84 = AXIS2_PLACEMENT_3D ( 'NONE', #117, #41, #202 ) ;
#85 = FACE_OUTER_BOUND ( 'NONE', #205, .T. ) ;
#86 = SURFACE_STYLE_FILL_AREA ( #10 ) ;
#87 = CARTESIAN_POINT ( 'NONE',  ( 0.0000000000000000000, 0.0000000000000000000, 0.0000000000000000000 ) ) ;
#88 = SURFACE_SIDE_STYLE ('',( #86 ) ) ;
#89 = DIRECTION ( 'NONE',  ( 0.0000000000000000000, 0.0000000000000000000, 1.000000000000000000 ) ) ;
#90 = PRESENTATION_LAYER_ASSIGNMENT (  '', '', ( #105 ) ) ;
#91 = COLOUR_RGB ( '',0.7921568627450980005, 0.8196078431372548767, 0.9333333333333333481 ) ;
#92 = PLANE ( 'NONE',  #35 ) ;
#93 = SURFACE_STYLE_USAGE ( .BOTH. , #56 ) ;
#94 = SURFACE_STYLE_USAGE ( .BOTH. , #88 ) ;
#95 = COLOUR_RGB ( '',1.000000000000000000, 1.000000000000000000, 0.0000000000000000000 ) ;
#96 = VERTEX_POINT ( 'NONE', #21 ) ;
#97 = ORIENTED_EDGE ( 'NONE', *, *, #181, .F. ) ;
#98 = CIRCLE ( 'NONE', #40, 4.400000000000008349 ) ;
#99 = ORIENTED_EDGE ( 'NONE', *, *, #195, .T. ) ;
#100 = CIRCLE ( 'NONE', #49, 4.400000000000014566 ) ;
#101 =( GEOMETRIC_REPRESENTATION_CONTEXT ( 3 ) GLOBAL_UNCERTAINTY_ASSIGNED_CONTEXT ( ( #213 ) ) GLOBAL_UNIT_ASSIGNED_CONTEXT ( ( #38, #191, #18 ) ) REPRESENTATION_CONTEXT ( 'NONE', 'WORKASPACE' ) );
#102 = ORIENTED_EDGE ( 'NONE', *, *, #181, .T. ) ;
#103 = CARTESIAN_POINT ( 'NONE',  ( 123.1774603255583571, 0.0000000000000000000, 4.400000000000014566 ) ) ;
#104 = FACE_OUTER_BOUND ( 'NONE', #142, .T. ) ;
#105 = STYLED_ITEM ( 'NONE', ( #83 ), #139 ) ;
#106 = EDGE_LOOP ( 'NONE', ( #58 ) ) ;
#107 = VERTEX_POINT ( 'NONE', #46 ) ;
#108 = PRESENTATION_STYLE_ASSIGNMENT (( #151 ) ) ;
#109 = AXIS2_PLACEMENT_3D ( 'NONE', #211, #173, #50 ) ;
#110 = CIRCLE ( 'NONE', #132, 4.400000000000008349 ) ;
#111 = DIRECTION ( 'NONE',  ( -1.000000000000000000, -0.0000000000000000000, -0.0000000000000000000 ) ) ;
#112 = AXIS2_PLACEMENT_3D ( 'NONE', #196, #116, #129 ) ;
#113 = CIRCLE ( 'NONE', #109, 4.400000000000008349 ) ;
#114 = ORIENTED_EDGE ( 'NONE', *, *, #163, .F. ) ;
#115 = AXIS2_PLACEMENT_3D ( 'NONE', #5, #174, #168 ) ;
#116 = DIRECTION ( 'NONE',  ( 1.000000000000000000, 0.0000000000000000000, 0.0000000000000000000 ) ) ;
#117 = CARTESIAN_POINT ( 'NONE',  ( -2.694222958124177006E-16, 0.0000000000000000000, 0.0000000000000000000 ) ) ;
#118 =( GEOMETRIC_REPRESENTATION_CONTEXT ( 3 ) GLOBAL_UNCERTAINTY_ASSIGNED_CONTEXT ( ( #34 ) ) GLOBAL_UNIT_ASSIGNED_CONTEXT ( ( #192, #146, #20 ) ) REPRESENTATION_CONTEXT ( 'NONE', 'WORKASPACE' ) );
#119 = EDGE_LOOP ( 'NONE', ( #97 ) ) ;
#120 = SURFACE_SIDE_STYLE ('',( #121 ) ) ;
#121 = SURFACE_STYLE_FILL_AREA ( #19 ) ;
#122 = STYLED_ITEM ( 'NONE', ( #165 ), #133 ) ;
#123 = MECHANICAL_DESIGN_GEOMETRIC_PRESENTATION_REPRESENTATION (  '', ( #105 ), #141 ) ;
#124 = FILL_AREA_STYLE_COLOUR ( '', #212 ) ;
#125 = ADVANCED_FACE ( 'NONE', ( #85, #104 ), #175, .T. ) ;
#126 = CYLINDRICAL_SURFACE ( 'NONE', #177, 4.400000000000008349 ) ;
#127 = PRESENTATION_LAYER_ASSIGNMENT (  '', '', ( #183 ) ) ;
#128 = FACE_OUTER_BOUND ( 'NONE', #119, .T. ) ;
#129 = DIRECTION ( 'NONE',  ( 0.0000000000000000000, 0.0000000000000000000, -1.000000000000000000 ) ) ;
#130 = FACE_OUTER_BOUND ( 'NONE', #131, .T. ) ;
#131 = EDGE_LOOP ( 'NONE', ( #76 ) ) ;
#132 = AXIS2_PLACEMENT_3D ( 'NONE', #30, #29, #22 ) ;
#133 = MANIFOLD_SOLID_BREP ( 'ºÐÇÒ2[2]', #198 ) ;
#134 = PRODUCT ( '03-1694', '03-1694', '', ( #65 ) ) ;
#135 = PRODUCT_DEFINITION_FORMATION_WITH_SPECIFIED_SOURCE ( 'ANY', '', #134, .NOT_KNOWN. ) ;
#136 = PLANE ( 'NONE',  #115 ) ;
#137 = ADVANCED_FACE ( 'NONE', ( #12 ), #136, .T. ) ;
#138 = DIRECTION ( 'NONE',  ( 0.0000000000000000000, 0.0000000000000000000, 1.000000000000000000 ) ) ;
#139 = ADVANCED_BREP_SHAPE_REPRESENTATION ( '03-1694', ( #42, #133, #160 ), #101 ) ;
#140 = MECHANICAL_DESIGN_GEOMETRIC_PRESENTATION_REPRESENTATION (  '', ( #122 ), #193 ) ;
#141 =( GEOMETRIC_REPRESENTATION_CONTEXT ( 3 ) GLOBAL_UNCERTAINTY_ASSIGNED_CONTEXT ( ( #210 ) ) GLOBAL_UNIT_ASSIGNED_CONTEXT ( ( #61, #157, #187 ) ) REPRESENTATION_CONTEXT ( 'NONE', 'WORKASPACE' ) );
#142 = EDGE_LOOP ( 'NONE', ( #114 ) ) ;
#143 = CARTESIAN_POINT ( 'NONE',  ( 0.0000000000000000000, 0.0000000000000000000, 0.0000000000000000000 ) ) ;
#144 = FILL_AREA_STYLE_COLOUR ( '', #91 ) ;
#145 = MECHANICAL_DESIGN_GEOMETRIC_PRESENTATION_REPRESENTATION (  '', ( #47 ), #158 ) ;
#146 =( NAMED_UNIT ( * ) PLANE_ANGLE_UNIT ( ) SI_UNIT ( $, .RADIAN. ) );
#147 = CONICAL_SURFACE ( 'NONE', #84, 3.519999999999981366, 0.7853981633974447263 ) ;
#148 = CARTESIAN_POINT ( 'NONE',  ( 123.1774603255583571, 0.0000000000000000000, 0.0000000000000000000 ) ) ;
#149 = SURFACE_STYLE_FILL_AREA ( #78 ) ;
#150 = DIRECTION ( 'NONE',  ( 0.0000000000000000000, 0.0000000000000000000, -1.000000000000000000 ) ) ;
#151 = SURFACE_STYLE_USAGE ( .BOTH. , #17 ) ;
#152 = PRODUCT_RELATED_PRODUCT_CATEGORY ( 'part', '', ( #134 ) ) ;
#153 = PRODUCT_DEFINITION_SHAPE ( 'NONE', 'NONE',  #190 ) ;
#154 = ADVANCED_FACE ( 'NONE', ( #130, #164 ), #147, .T. ) ;
#155 = FILL_AREA_STYLE ('',( #209 ) ) ;
#156 = EDGE_CURVE ( 'NONE', #96, #96, #113, .T. ) ;
#157 =( NAMED_UNIT ( * ) PLANE_ANGLE_UNIT ( ) SI_UNIT ( $, .RADIAN. ) );
#158 =( GEOMETRIC_REPRESENTATION_CONTEXT ( 3 ) GLOBAL_UNCERTAINTY_ASSIGNED_CONTEXT ( ( #197 ) ) GLOBAL_UNIT_ASSIGNED_CONTEXT ( ( #166, #72, #176 ) ) REPRESENTATION_CONTEXT ( 'NONE', 'WORKASPACE' ) );
#159 = UNCERTAINTY_MEASURE_WITH_UNIT (LENGTH_MEASURE( 1.000000000000000082E-05 ), #201, 'distance_accuracy_value', 'NONE');
#160 = AXIS2_PLACEMENT_3D ( 'NONE', #33, #89, #64 ) ;
#161 = FACE_OUTER_BOUND ( 'NONE', #28, .T. ) ;
#162 =( LENGTH_UNIT ( ) NAMED_UNIT ( * ) SI_UNIT ( .MILLI., .METRE. ) );
#163 = EDGE_CURVE ( 'NONE', #107, #107, #110, .T. ) ;
#164 = FACE_BOUND ( 'NONE', #106, .T. ) ;
#165 = PRESENTATION_STYLE_ASSIGNMENT (( #194 ) ) ;
#166 =( LENGTH_UNIT ( ) NAMED_UNIT ( * ) SI_UNIT ( .MILLI., .METRE. ) );
#167 = SURFACE_SIDE_STYLE ('',( #149 ) ) ;
#168 = DIRECTION ( 'NONE',  ( 0.0000000000000000000, 0.0000000000000000000, -1.000000000000000000 ) ) ;
#169 =( GEOMETRIC_REPRESENTATION_CONTEXT ( 3 ) GLOBAL_UNCERTAINTY_ASSIGNED_CONTEXT ( ( #159 ) ) GLOBAL_UNIT_ASSIGNED_CONTEXT ( ( #201, #170, #27 ) ) REPRESENTATION_CONTEXT ( 'NONE', 'WORKASPACE' ) );
#170 =( NAMED_UNIT ( * ) PLANE_ANGLE_UNIT ( ) SI_UNIT ( $, .RADIAN. ) );
#171 = FACE_OUTER_BOUND ( 'NONE', #37, .T. ) ;
#172 = EDGE_CURVE ( 'NONE', #3, #3, #25, .T. ) ;
#173 = DIRECTION ( 'NONE',  ( 1.000000000000000000, 0.0000000000000000000, 0.0000000000000000000 ) ) ;
#174 = DIRECTION ( 'NONE',  ( 1.000000000000000000, 0.0000000000000000000, 0.0000000000000000000 ) ) ;
#175 = CYLINDRICAL_SURFACE ( 'NONE', #185, 4.400000000000008349 ) ;
#176 =( NAMED_UNIT ( * ) SI_UNIT ( $, .STERADIAN. ) SOLID_ANGLE_UNIT ( ) );
#177 = AXIS2_PLACEMENT_3D ( 'NONE', #87, #111, #44 ) ;
#178 = CARTESIAN_POINT ( 'NONE',  ( -2.694222958124177006E-16, 0.0000000000000000000, 0.0000000000000000000 ) ) ;
#179 = FACE_OUTER_BOUND ( 'NONE', #24, .T. ) ;
#180 = FILL_AREA_STYLE ('',( #81 ) ) ;
#181 = EDGE_CURVE ( 'NONE', #1, #1, #100, .T. ) ;
#182 = SURFACE_STYLE_USAGE ( .BOTH. , #167 ) ;
#183 = STYLED_ITEM ( 'NONE', ( #108 ), #79 ) ;
#184 = DIRECTION ( 'NONE',  ( 1.000000000000000000, 0.0000000000000000000, 0.0000000000000000000 ) ) ;
#185 = AXIS2_PLACEMENT_3D ( 'NONE', #143, #204, #138 ) ;
#186 = SHAPE_DEFINITION_REPRESENTATION ( #153, #139 ) ;
#187 =( NAMED_UNIT ( * ) SI_UNIT ( $, .STERADIAN. ) SOLID_ANGLE_UNIT ( ) );
#188 = EDGE_LOOP ( 'NONE', ( #53 ) ) ;
#189 = PRESENTATION_LAYER_ASSIGNMENT (  '', '', ( #47 ) ) ;
#190 = PRODUCT_DEFINITION ( 'UNKNOWN', '', #135, #63 ) ;
#191 =( NAMED_UNIT ( * ) PLANE_ANGLE_UNIT ( ) SI_UNIT ( $, .RADIAN. ) );
#192 =( LENGTH_UNIT ( ) NAMED_UNIT ( * ) SI_UNIT ( .MILLI., .METRE. ) );
#193 =( GEOMETRIC_REPRESENTATION_CONTEXT ( 3 ) GLOBAL_UNCERTAINTY_ASSIGNED_CONTEXT ( ( #52 ) ) GLOBAL_UNIT_ASSIGNED_CONTEXT ( ( #162, #36, #59 ) ) REPRESENTATION_CONTEXT ( 'NONE', 'WORKASPACE' ) );
#194 = SURFACE_STYLE_USAGE ( .BOTH. , #120 ) ;
#195 = EDGE_CURVE ( 'NONE', #2, #2, #98, .T. ) ;
#196 = CARTESIAN_POINT ( 'NONE',  ( -2.694222958124177006E-16, 4.400000000000000355, 0.0000000000000000000 ) ) ;
#197 = UNCERTAINTY_MEASURE_WITH_UNIT (LENGTH_MEASURE( 1.000000000000000082E-05 ), #166, 'distance_accuracy_value', 'NONE');
#198 = CLOSED_SHELL ( 'NONE', ( #54, #4, #79 ) ) ;
#199 = PRESENTATION_LAYER_ASSIGNMENT (  '', '', ( #122 ) ) ;
#200 = ADVANCED_FACE ( 'NONE', ( #171 ), #16, .F. ) ;
#201 =( LENGTH_UNIT ( ) NAMED_UNIT ( * ) SI_UNIT ( .MILLI., .METRE. ) );
#202 = DIRECTION ( 'NONE',  ( 0.0000000000000000000, 0.0000000000000000000, -1.000000000000000000 ) ) ;
#203 = DIRECTION ( 'NONE',  ( 0.0000000000000000000, 0.0000000000000000000, 1.000000000000000000 ) ) ;
#204 = DIRECTION ( 'NONE',  ( -1.000000000000000000, -0.0000000000000000000, -0.0000000000000000000 ) ) ;
#205 = EDGE_LOOP ( 'NONE', ( #99 ) ) ;
#206 = DIRECTION ( 'NONE',  ( 0.0000000000000000000, 0.0000000000000000000, -1.000000000000000000 ) ) ;
#207 = STYLED_ITEM ( 'NONE', ( #67 ), #4 ) ;
#208 = CARTESIAN_POINT ( 'NONE',  ( 0.8800000000000324230, 0.0000000000000000000, 0.0000000000000000000 ) ) ;
#209 = FILL_AREA_STYLE_COLOUR ( '', #95 ) ;
#210 = UNCERTAINTY_MEASURE_WITH_UNIT (LENGTH_MEASURE( 1.000000000000000082E-05 ), #61, 'distance_accuracy_value', 'NONE');
#211 = CARTESIAN_POINT ( 'NONE',  ( 44.00000000000000000, 0.0000000000000000000, 0.0000000000000000000 ) ) ;
#212 = COLOUR_RGB ( '',0.7921568627450980005, 0.8196078431372548767, 0.9333333333333333481 ) ;
#213 = UNCERTAINTY_MEASURE_WITH_UNIT (LENGTH_MEASURE( 1.000000000000000082E-05 ), #38, 'distance_accuracy_value', 'NONE');
ENDSEC;
END-ISO-10303-21;
