ISO-10303-21;
HEADER;
FILE_DESCRIPTION (( 'STEP AP214' ),
    '1' );
FILE_NAME ('03-1695.STEP',
    '2021-10-01T05:41:55',
    ( 'USER' ),
    ( '' ),
    'SwSTEP 2.0',
    'SolidWorks 2018',
    '' );
FILE_SCHEMA (( 'AUTOMOTIVE_DESIGN' ));
ENDSEC;

DATA;
#1 = CARTESIAN_POINT ( 'NONE',  ( 0.8900000000000187761, 0.0000000000000000000, -4.450000000000008171 ) ) ;
#2 = PRESENTATION_STYLE_ASSIGNMENT (( #175 ) ) ;
#3 = CARTESIAN_POINT ( 'NONE',  ( 44.00000000000000000, 0.0000000000000000000, 0.0000000000000000000 ) ) ;
#4 = PRODUCT_RELATED_PRODUCT_CATEGORY ( 'part', '', ( #15 ) ) ;
#5 = DIRECTION ( 'NONE',  ( 0.0000000000000000000, 0.0000000000000000000, -1.000000000000000000 ) ) ;
#6 = CLOSED_SHELL ( 'NONE', ( #119, #210, #13, #176 ) ) ;
#7 = COLOUR_RGB ( '',1.000000000000000000, 1.000000000000000000, 0.0000000000000000000 ) ;
#8 = EDGE_CURVE ( 'NONE', #81, #81, #44, .T. ) ;
#9 = ORIENTED_EDGE ( 'NONE', *, *, #209, .F. ) ;
#10 = FACE_OUTER_BOUND ( 'NONE', #79, .T. ) ;
#11 =( NAMED_UNIT ( * ) PLANE_ANGLE_UNIT ( ) SI_UNIT ( $, .RADIAN. ) );
#12 = APPLICATION_PROTOCOL_DEFINITION ( 'draft international standard', 'automotive_design', 1998, #62 ) ;
#13 = ADVANCED_FACE ( 'NONE', ( #64, #84 ), #20, .T. ) ;
#14 = FACE_OUTER_BOUND ( 'NONE', #24, .T. ) ;
#15 = PRODUCT ( '03-1695', '03-1695', '', ( #139 ) ) ;
#16 =( LENGTH_UNIT ( ) NAMED_UNIT ( * ) SI_UNIT ( .MILLI., .METRE. ) );
#17 = CYLINDRICAL_SURFACE ( 'NONE', #32, 4.450000000000008171 ) ;
#18 = CYLINDRICAL_SURFACE ( 'NONE', #192, 4.450000000000008171 ) ;
#19 = EDGE_CURVE ( 'NONE', #152, #152, #40, .T. ) ;
#20 = CONICAL_SURFACE ( 'NONE', #63, 3.559999999999993836, 0.7853981633974453924 ) ;
#21 = CARTESIAN_POINT ( 'NONE',  ( -2.724839128102860892E-16, 0.0000000000000000000, -3.559999999999993836 ) ) ;
#22 = STYLED_ITEM ( 'NONE', ( #67 ), #163 ) ;
#23 = DIRECTION ( 'NONE',  ( 0.0000000000000000000, 0.0000000000000000000, 1.000000000000000000 ) ) ;
#24 = EDGE_LOOP ( 'NONE', ( #90 ) ) ;
#25 =( LENGTH_UNIT ( ) NAMED_UNIT ( * ) SI_UNIT ( .MILLI., .METRE. ) );
#26 = DIRECTION ( 'NONE',  ( 0.0000000000000000000, 0.0000000000000000000, -1.000000000000000000 ) ) ;
#27 = EDGE_CURVE ( 'NONE', #191, #191, #120, .T. ) ;
#28 = MANIFOLD_SOLID_BREP ( 'ºÐÇÒ2[2]', #150 ) ;
#29 = CARTESIAN_POINT ( 'NONE',  ( -2.724839128102860892E-16, 0.0000000000000000000, 0.0000000000000000000 ) ) ;
#30 =( NAMED_UNIT ( * ) PLANE_ANGLE_UNIT ( ) SI_UNIT ( $, .RADIAN. ) );
#31 = CARTESIAN_POINT ( 'NONE',  ( -2.724839128102860892E-16, 0.0000000000000000000, 0.0000000000000000000 ) ) ;
#32 = AXIS2_PLACEMENT_3D ( 'NONE', #82, #123, #23 ) ;
#33 = SURFACE_STYLE_FILL_AREA ( #34 ) ;
#34 = FILL_AREA_STYLE ('',( #168 ) ) ;
#35 = DIRECTION ( 'NONE',  ( 1.000000000000000000, 0.0000000000000000000, 0.0000000000000000000 ) ) ;
#36 = DIRECTION ( 'NONE',  ( 1.000000000000000000, 0.0000000000000000000, 0.0000000000000000000 ) ) ;
#37 = COLOUR_RGB ( '',0.7921568627450980005, 0.8196078431372548767, 0.9333333333333333481 ) ;
#38 = AXIS2_PLACEMENT_3D ( 'NONE', #3, #36, #182 ) ;
#39 = UNCERTAINTY_MEASURE_WITH_UNIT (LENGTH_MEASURE( 1.000000000000000082E-05 ), #162, 'distance_accuracy_value', 'NONE');
#40 = CIRCLE ( 'NONE', #74, 3.559999999999993836 ) ;
#41 = PRODUCT_DEFINITION_FORMATION_WITH_SPECIFIED_SOURCE ( 'ANY', '', #15, .NOT_KNOWN. ) ;
#42 = CARTESIAN_POINT ( 'NONE',  ( 123.1567496474396961, 0.0000000000000000000, 4.450000000000014388 ) ) ;
#43 = CARTESIAN_POINT ( 'NONE',  ( 44.00000000000000000, 0.0000000000000000000, -4.450000000000008171 ) ) ;
#44 = CIRCLE ( 'NONE', #47, 4.450000000000008171 ) ;
#45 = DIRECTION ( 'NONE',  ( 0.0000000000000000000, 0.0000000000000000000, -1.000000000000000000 ) ) ;
#46 = ORIENTED_EDGE ( 'NONE', *, *, #205, .F. ) ;
#47 = AXIS2_PLACEMENT_3D ( 'NONE', #202, #109, #117 ) ;
#48 = SURFACE_STYLE_FILL_AREA ( #78 ) ;
#49 = EDGE_LOOP ( 'NONE', ( #46 ) ) ;
#50 = EDGE_LOOP ( 'NONE', ( #77 ) ) ;
#51 =( GEOMETRIC_REPRESENTATION_CONTEXT ( 3 ) GLOBAL_UNCERTAINTY_ASSIGNED_CONTEXT ( ( #122 ) ) GLOBAL_UNIT_ASSIGNED_CONTEXT ( ( #174, #11, #147 ) ) REPRESENTATION_CONTEXT ( 'NONE', 'WORKASPACE' ) );
#52 = DIRECTION ( 'NONE',  ( -1.000000000000000000, -0.0000000000000000000, -0.0000000000000000000 ) ) ;
#53 = FACE_OUTER_BOUND ( 'NONE', #107, .T. ) ;
#54 = EDGE_LOOP ( 'NONE', ( #184 ) ) ;
#55 = AXIS2_PLACEMENT_3D ( 'NONE', #213, #86, #85 ) ;
#56 =( GEOMETRIC_REPRESENTATION_CONTEXT ( 3 ) GLOBAL_UNCERTAINTY_ASSIGNED_CONTEXT ( ( #169 ) ) GLOBAL_UNIT_ASSIGNED_CONTEXT ( ( #25, #148, #204 ) ) REPRESENTATION_CONTEXT ( 'NONE', 'WORKASPACE' ) );
#57 = DIRECTION ( 'NONE',  ( 0.0000000000000000000, 0.0000000000000000000, -1.000000000000000000 ) ) ;
#58 = FACE_OUTER_BOUND ( 'NONE', #54, .T. ) ;
#59 = DIRECTION ( 'NONE',  ( -1.000000000000000000, -0.0000000000000000000, -0.0000000000000000000 ) ) ;
#60 =( NAMED_UNIT ( * ) SI_UNIT ( $, .STERADIAN. ) SOLID_ANGLE_UNIT ( ) );
#61 = PRODUCT_DEFINITION_CONTEXT ( 'detailed design', #183, 'design' ) ;
#62 = APPLICATION_CONTEXT ( 'automotive_design' ) ;
#63 = AXIS2_PLACEMENT_3D ( 'NONE', #31, #167, #45 ) ;
#64 = FACE_OUTER_BOUND ( 'NONE', #49, .T. ) ;
#65 = EDGE_LOOP ( 'NONE', ( #145 ) ) ;
#66 = PLANE ( 'NONE',  #55 ) ;
#67 = PRESENTATION_STYLE_ASSIGNMENT (( #158 ) ) ;
#68 = CIRCLE ( 'NONE', #38, 4.450000000000008171 ) ;
#69 = AXIS2_PLACEMENT_3D ( 'NONE', #132, #130, #5 ) ;
#70 = UNCERTAINTY_MEASURE_WITH_UNIT (LENGTH_MEASURE( 1.000000000000000082E-05 ), #100, 'distance_accuracy_value', 'NONE');
#71 = EDGE_LOOP ( 'NONE', ( #197 ) ) ;
#72 = FILL_AREA_STYLE ('',( #198 ) ) ;
#73 = UNCERTAINTY_MEASURE_WITH_UNIT (LENGTH_MEASURE( 1.000000000000000082E-05 ), #16, 'distance_accuracy_value', 'NONE');
#74 = AXIS2_PLACEMENT_3D ( 'NONE', #29, #166, #57 ) ;
#75 = ADVANCED_FACE ( 'NONE', ( #114 ), #125, .F. ) ;
#76 = ORIENTED_EDGE ( 'NONE', *, *, #27, .T. ) ;
#77 = ORIENTED_EDGE ( 'NONE', *, *, #19, .F. ) ;
#78 = FILL_AREA_STYLE ('',( #211 ) ) ;
#79 = EDGE_LOOP ( 'NONE', ( #76 ) ) ;
#80 = SURFACE_SIDE_STYLE ('',( #48 ) ) ;
#81 = VERTEX_POINT ( 'NONE', #43 ) ;
#82 = CARTESIAN_POINT ( 'NONE',  ( 0.0000000000000000000, 0.0000000000000000000, 0.0000000000000000000 ) ) ;
#83 = FILL_AREA_STYLE_COLOUR ( '', #93 ) ;
#84 = FACE_BOUND ( 'NONE', #50, .T. ) ;
#85 = DIRECTION ( 'NONE',  ( 0.0000000000000000000, 0.0000000000000000000, -1.000000000000000000 ) ) ;
#86 = DIRECTION ( 'NONE',  ( 1.000000000000000000, 0.0000000000000000000, 0.0000000000000000000 ) ) ;
#87 = SHAPE_DEFINITION_REPRESENTATION ( #161, #157 ) ;
#88 =( LENGTH_UNIT ( ) NAMED_UNIT ( * ) SI_UNIT ( .MILLI., .METRE. ) );
#89 =( NAMED_UNIT ( * ) PLANE_ANGLE_UNIT ( ) SI_UNIT ( $, .RADIAN. ) );
#90 = ORIENTED_EDGE ( 'NONE', *, *, #19, .T. ) ;
#91 = CARTESIAN_POINT ( 'NONE',  ( 44.00000000000000000, 0.0000000000000000000, -4.450000000000008171 ) ) ;
#92 = STYLED_ITEM ( 'NONE', ( #2 ), #28 ) ;
#93 = COLOUR_RGB ( '',1.000000000000000000, 1.000000000000000000, 0.0000000000000000000 ) ;
#94 = MANIFOLD_SOLID_BREP ( 'ºÐÇÒ2[1]', #6 ) ;
#95 = DIRECTION ( 'NONE',  ( 0.0000000000000000000, 0.0000000000000000000, 1.000000000000000000 ) ) ;
#96 = EDGE_LOOP ( 'NONE', ( #135 ) ) ;
#97 = PRESENTATION_LAYER_ASSIGNMENT (  '', '', ( #177 ) ) ;
#98 = FACE_OUTER_BOUND ( 'NONE', #71, .T. ) ;
#99 = ADVANCED_FACE ( 'NONE', ( #98, #10 ), #17, .T. ) ;
#100 =( LENGTH_UNIT ( ) NAMED_UNIT ( * ) SI_UNIT ( .MILLI., .METRE. ) );
#101 = FACE_OUTER_BOUND ( 'NONE', #65, .T. ) ;
#102 = FILL_AREA_STYLE_COLOUR ( '', #121 ) ;
#103 = DIRECTION ( 'NONE',  ( -1.000000000000000000, -0.0000000000000000000, -0.0000000000000000000 ) ) ;
#104 = SURFACE_SIDE_STYLE ('',( #127 ) ) ;
#105 = PRESENTATION_STYLE_ASSIGNMENT (( #208 ) ) ;
#106 = CARTESIAN_POINT ( 'NONE',  ( -2.724839128102860892E-16, 4.450000000000000178, 0.0000000000000000000 ) ) ;
#107 = EDGE_LOOP ( 'NONE', ( #9 ) ) ;
#108 = PLANE ( 'NONE',  #113 ) ;
#109 = DIRECTION ( 'NONE',  ( 1.000000000000000000, 0.0000000000000000000, 0.0000000000000000000 ) ) ;
#110 = PRESENTATION_LAYER_ASSIGNMENT (  '', '', ( #92 ) ) ;
#111 = SURFACE_STYLE_FILL_AREA ( #203 ) ;
#112 = VERTEX_POINT ( 'NONE', #1 ) ;
#113 = AXIS2_PLACEMENT_3D ( 'NONE', #106, #35, #26 ) ;
#114 = FACE_OUTER_BOUND ( 'NONE', #96, .T. ) ;
#115 = DIRECTION ( 'NONE',  ( 0.0000000000000000000, 0.0000000000000000000, 1.000000000000000000 ) ) ;
#116 =( NAMED_UNIT ( * ) SI_UNIT ( $, .STERADIAN. ) SOLID_ANGLE_UNIT ( ) );
#117 = DIRECTION ( 'NONE',  ( 0.0000000000000000000, 0.0000000000000000000, -1.000000000000000000 ) ) ;
#118 = CARTESIAN_POINT ( 'NONE',  ( 44.00000000000000000, 0.0000000000000000000, 0.0000000000000000000 ) ) ;
#119 = ADVANCED_FACE ( 'NONE', ( #138, #53 ), #18, .T. ) ;
#120 = CIRCLE ( 'NONE', #178, 4.450000000000014388 ) ;
#121 = COLOUR_RGB ( '',0.7921568627450980005, 0.8196078431372548767, 0.9333333333333333481 ) ;
#122 = UNCERTAINTY_MEASURE_WITH_UNIT (LENGTH_MEASURE( 1.000000000000000082E-05 ), #174, 'distance_accuracy_value', 'NONE');
#123 = DIRECTION ( 'NONE',  ( -1.000000000000000000, -0.0000000000000000000, -0.0000000000000000000 ) ) ;
#124 = EDGE_LOOP ( 'NONE', ( #194 ) ) ;
#125 = PLANE ( 'NONE',  #172 ) ;
#126 = SURFACE_SIDE_STYLE ('',( #111 ) ) ;
#127 = SURFACE_STYLE_FILL_AREA ( #190 ) ;
#128 = PRESENTATION_LAYER_ASSIGNMENT (  '', '', ( #181 ) ) ;
#129 =( NAMED_UNIT ( * ) PLANE_ANGLE_UNIT ( ) SI_UNIT ( $, .RADIAN. ) );
#130 = DIRECTION ( 'NONE',  ( 1.000000000000000000, 0.0000000000000000000, 0.0000000000000000000 ) ) ;
#131 = SURFACE_STYLE_FILL_AREA ( #72 ) ;
#132 = CARTESIAN_POINT ( 'NONE',  ( 0.8900000000000187761, 0.0000000000000000000, 0.0000000000000000000 ) ) ;
#133 = UNCERTAINTY_MEASURE_WITH_UNIT (LENGTH_MEASURE( 1.000000000000000082E-05 ), #88, 'distance_accuracy_value', 'NONE');
#134 = PRESENTATION_STYLE_ASSIGNMENT (( #160 ) ) ;
#135 = ORIENTED_EDGE ( 'NONE', *, *, #8, .F. ) ;
#136 =( GEOMETRIC_REPRESENTATION_CONTEXT ( 3 ) GLOBAL_UNCERTAINTY_ASSIGNED_CONTEXT ( ( #73 ) ) GLOBAL_UNIT_ASSIGNED_CONTEXT ( ( #16, #153, #60 ) ) REPRESENTATION_CONTEXT ( 'NONE', 'WORKASPACE' ) );
#137 = SURFACE_SIDE_STYLE ('',( #131 ) ) ;
#138 = FACE_OUTER_BOUND ( 'NONE', #124, .T. ) ;
#139 = PRODUCT_CONTEXT ( 'NONE', #62, 'mechanical' ) ;
#140 = SURFACE_STYLE_USAGE ( .BOTH. , #126 ) ;
#141 = VERTEX_POINT ( 'NONE', #91 ) ;
#142 = COLOUR_RGB ( '',0.7921568627450980005, 0.8196078431372548767, 0.9333333333333333481 ) ;
#143 = MECHANICAL_DESIGN_GEOMETRIC_PRESENTATION_REPRESENTATION (  '', ( #181 ), #51 ) ;
#144 = DIRECTION ( 'NONE',  ( 1.000000000000000000, 0.0000000000000000000, 0.0000000000000000000 ) ) ;
#145 = ORIENTED_EDGE ( 'NONE', *, *, #209, .T. ) ;
#146 = PRESENTATION_LAYER_ASSIGNMENT (  '', '', ( #22 ) ) ;
#147 =( NAMED_UNIT ( * ) SI_UNIT ( $, .STERADIAN. ) SOLID_ANGLE_UNIT ( ) );
#148 =( NAMED_UNIT ( * ) PLANE_ANGLE_UNIT ( ) SI_UNIT ( $, .RADIAN. ) );
#149 = PRESENTATION_STYLE_ASSIGNMENT (( #140 ) ) ;
#150 = CLOSED_SHELL ( 'NONE', ( #75, #99, #163 ) ) ;
#151 = DIRECTION ( 'NONE',  ( 1.000000000000000000, 0.0000000000000000000, 0.0000000000000000000 ) ) ;
#152 = VERTEX_POINT ( 'NONE', #21 ) ;
#153 =( NAMED_UNIT ( * ) PLANE_ANGLE_UNIT ( ) SI_UNIT ( $, .RADIAN. ) );
#154 = PRODUCT_DEFINITION ( 'UNKNOWN', '', #41, #61 ) ;
#155 = CARTESIAN_POINT ( 'NONE',  ( 0.0000000000000000000, 0.0000000000000000000, 0.0000000000000000000 ) ) ;
#156 = APPLICATION_PROTOCOL_DEFINITION ( 'draft international standard', 'automotive_design', 1998, #183 ) ;
#157 = ADVANCED_BREP_SHAPE_REPRESENTATION ( '03-1695', ( #94, #28, #164 ), #165 ) ;
#158 = SURFACE_STYLE_USAGE ( .BOTH. , #187 ) ;
#159 = CIRCLE ( 'NONE', #69, 4.450000000000008171 ) ;
#160 = SURFACE_STYLE_USAGE ( .BOTH. , #104 ) ;
#161 = PRODUCT_DEFINITION_SHAPE ( 'NONE', 'NONE',  #154 ) ;
#162 =( LENGTH_UNIT ( ) NAMED_UNIT ( * ) SI_UNIT ( .MILLI., .METRE. ) );
#163 = ADVANCED_FACE ( 'NONE', ( #58 ), #193, .T. ) ;
#164 = AXIS2_PLACEMENT_3D ( 'NONE', #155, #173, #144 ) ;
#165 =( GEOMETRIC_REPRESENTATION_CONTEXT ( 3 ) GLOBAL_UNCERTAINTY_ASSIGNED_CONTEXT ( ( #133 ) ) GLOBAL_UNIT_ASSIGNED_CONTEXT ( ( #88, #129, #199 ) ) REPRESENTATION_CONTEXT ( 'NONE', 'WORKASPACE' ) );
#166 = DIRECTION ( 'NONE',  ( -1.000000000000000000, -0.0000000000000000000, -0.0000000000000000000 ) ) ;
#167 = DIRECTION ( 'NONE',  ( 1.000000000000000000, 0.0000000000000000000, 0.0000000000000000000 ) ) ;
#168 = FILL_AREA_STYLE_COLOUR ( '', #7 ) ;
#169 = UNCERTAINTY_MEASURE_WITH_UNIT (LENGTH_MEASURE( 1.000000000000000082E-05 ), #25, 'distance_accuracy_value', 'NONE');
#170 = AXIS2_PLACEMENT_3D ( 'NONE', #212, #103, #95 ) ;
#171 = MECHANICAL_DESIGN_GEOMETRIC_PRESENTATION_REPRESENTATION (  '', ( #177 ), #136 ) ;
#172 = AXIS2_PLACEMENT_3D ( 'NONE', #118, #151, #180 ) ;
#173 = DIRECTION ( 'NONE',  ( 0.0000000000000000000, 0.0000000000000000000, 1.000000000000000000 ) ) ;
#174 =( LENGTH_UNIT ( ) NAMED_UNIT ( * ) SI_UNIT ( .MILLI., .METRE. ) );
#175 = SURFACE_STYLE_USAGE ( .BOTH. , #80 ) ;
#176 = ADVANCED_FACE ( 'NONE', ( #101 ), #66, .T. ) ;
#177 = STYLED_ITEM ( 'NONE', ( #149 ), #94 ) ;
#178 = AXIS2_PLACEMENT_3D ( 'NONE', #189, #59, #179 ) ;
#179 = DIRECTION ( 'NONE',  ( 0.0000000000000000000, 0.0000000000000000000, 1.000000000000000000 ) ) ;
#180 = DIRECTION ( 'NONE',  ( 0.0000000000000000000, 0.0000000000000000000, -1.000000000000000000 ) ) ;
#181 = STYLED_ITEM ( 'NONE', ( #134 ), #99 ) ;
#182 = DIRECTION ( 'NONE',  ( 0.0000000000000000000, 0.0000000000000000000, -1.000000000000000000 ) ) ;
#183 = APPLICATION_CONTEXT ( 'automotive_design' ) ;
#184 = ORIENTED_EDGE ( 'NONE', *, *, #27, .F. ) ;
#185 = MECHANICAL_DESIGN_GEOMETRIC_PRESENTATION_REPRESENTATION (  '', ( #22 ), #201 ) ;
#186 = PRESENTATION_LAYER_ASSIGNMENT (  '', '', ( #195 ) ) ;
#187 = SURFACE_SIDE_STYLE ('',( #33 ) ) ;
#188 = MECHANICAL_DESIGN_GEOMETRIC_PRESENTATION_REPRESENTATION (  '', ( #92 ), #196 ) ;
#189 = CARTESIAN_POINT ( 'NONE',  ( 123.1567496474396961, 0.0000000000000000000, 0.0000000000000000000 ) ) ;
#190 = FILL_AREA_STYLE ('',( #83 ) ) ;
#191 = VERTEX_POINT ( 'NONE', #42 ) ;
#192 = AXIS2_PLACEMENT_3D ( 'NONE', #207, #52, #115 ) ;
#193 = CONICAL_SURFACE ( 'NONE', #170, 2414.213562373060995, 1.178097245096167534 ) ;
#194 = ORIENTED_EDGE ( 'NONE', *, *, #205, .T. ) ;
#195 = STYLED_ITEM ( 'NONE', ( #105 ), #157 ) ;
#196 =( GEOMETRIC_REPRESENTATION_CONTEXT ( 3 ) GLOBAL_UNCERTAINTY_ASSIGNED_CONTEXT ( ( #70 ) ) GLOBAL_UNIT_ASSIGNED_CONTEXT ( ( #100, #30, #200 ) ) REPRESENTATION_CONTEXT ( 'NONE', 'WORKASPACE' ) );
#197 = ORIENTED_EDGE ( 'NONE', *, *, #8, .T. ) ;
#198 = FILL_AREA_STYLE_COLOUR ( '', #142 ) ;
#199 =( NAMED_UNIT ( * ) SI_UNIT ( $, .STERADIAN. ) SOLID_ANGLE_UNIT ( ) );
#200 =( NAMED_UNIT ( * ) SI_UNIT ( $, .STERADIAN. ) SOLID_ANGLE_UNIT ( ) );
#201 =( GEOMETRIC_REPRESENTATION_CONTEXT ( 3 ) GLOBAL_UNCERTAINTY_ASSIGNED_CONTEXT ( ( #39 ) ) GLOBAL_UNIT_ASSIGNED_CONTEXT ( ( #162, #89, #116 ) ) REPRESENTATION_CONTEXT ( 'NONE', 'WORKASPACE' ) );
#202 = CARTESIAN_POINT ( 'NONE',  ( 44.00000000000000000, 0.0000000000000000000, 0.0000000000000000000 ) ) ;
#203 = FILL_AREA_STYLE ('',( #102 ) ) ;
#204 =( NAMED_UNIT ( * ) SI_UNIT ( $, .STERADIAN. ) SOLID_ANGLE_UNIT ( ) );
#205 = EDGE_CURVE ( 'NONE', #112, #112, #159, .T. ) ;
#206 = MECHANICAL_DESIGN_GEOMETRIC_PRESENTATION_REPRESENTATION (  '', ( #195 ), #56 ) ;
#207 = CARTESIAN_POINT ( 'NONE',  ( 0.0000000000000000000, 0.0000000000000000000, 0.0000000000000000000 ) ) ;
#208 = SURFACE_STYLE_USAGE ( .BOTH. , #137 ) ;
#209 = EDGE_CURVE ( 'NONE', #141, #141, #68, .T. ) ;
#210 = ADVANCED_FACE ( 'NONE', ( #14 ), #108, .F. ) ;
#211 = FILL_AREA_STYLE_COLOUR ( '', #37 ) ;
#212 = CARTESIAN_POINT ( 'NONE',  ( -875.0000000000000000, 0.0000000000000000000, 0.0000000000000000000 ) ) ;
#213 = CARTESIAN_POINT ( 'NONE',  ( 44.00000000000000000, 0.0000000000000000000, 0.0000000000000000000 ) ) ;
ENDSEC;
END-ISO-10303-21;
