ISO-10303-21;
HEADER;
FILE_DESCRIPTION (( 'STEP AP214' ),
    '1' );
FILE_NAME ('03-1696.STEP',
    '2021-10-01T05:42:13',
    ( 'USER' ),
    ( '' ),
    'SwSTEP 2.0',
    'SolidWorks 2018',
    '' );
FILE_SCHEMA (( 'AUTOMOTIVE_DESIGN' ));
ENDSEC;

DATA;
#1 = ORIENTED_EDGE ( 'NONE', *, *, #154, .F. ) ;
#2 = DIRECTION ( 'NONE',  ( 0.0000000000000000000, 0.0000000000000000000, -1.000000000000000000 ) ) ;
#3 = PRESENTATION_STYLE_ASSIGNMENT (( #185 ) ) ;
#4 = VERTEX_POINT ( 'NONE', #42 ) ;
#5 = DIRECTION ( 'NONE',  ( 1.000000000000000000, 0.0000000000000000000, 0.0000000000000000000 ) ) ;
#6 = EDGE_CURVE ( 'NONE', #4, #4, #96, .T. ) ;
#7 = EDGE_LOOP ( 'NONE', ( #71 ) ) ;
#8 = UNCERTAINTY_MEASURE_WITH_UNIT (LENGTH_MEASURE( 1.000000000000000082E-05 ), #126, 'distance_accuracy_value', 'NONE');
#9 = MECHANICAL_DESIGN_GEOMETRIC_PRESENTATION_REPRESENTATION (  '', ( #203 ), #52 ) ;
#10 = APPLICATION_CONTEXT ( 'automotive_design' ) ;
#11 = AXIS2_PLACEMENT_3D ( 'NONE', #13, #152, #44 ) ;
#12 = COLOUR_RGB ( '',0.7921568627450980005, 0.8196078431372548767, 0.9333333333333333481 ) ;
#13 = CARTESIAN_POINT ( 'NONE',  ( 44.00000000000000000, 0.0000000000000000000, 0.0000000000000000000 ) ) ;
#14 = EDGE_LOOP ( 'NONE', ( #61 ) ) ;
#15 =( NAMED_UNIT ( * ) SI_UNIT ( $, .STERADIAN. ) SOLID_ANGLE_UNIT ( ) );
#16 =( GEOMETRIC_REPRESENTATION_CONTEXT ( 3 ) GLOBAL_UNCERTAINTY_ASSIGNED_CONTEXT ( ( #161 ) ) GLOBAL_UNIT_ASSIGNED_CONTEXT ( ( #155, #153, #188 ) ) REPRESENTATION_CONTEXT ( 'NONE', 'WORKASPACE' ) );
#17 = FACE_OUTER_BOUND ( 'NONE', #89, .T. ) ;
#18 = DIRECTION ( 'NONE',  ( 0.0000000000000000000, 0.0000000000000000000, -1.000000000000000000 ) ) ;
#19 = FACE_BOUND ( 'NONE', #182, .T. ) ;
#20 = CLOSED_SHELL ( 'NONE', ( #159, #59, #200 ) ) ;
#21 = AXIS2_PLACEMENT_3D ( 'NONE', #24, #37, #74 ) ;
#22 = PRODUCT_RELATED_PRODUCT_CATEGORY ( 'part', '', ( #143 ) ) ;
#23 = SURFACE_STYLE_FILL_AREA ( #124 ) ;
#24 = CARTESIAN_POINT ( 'NONE',  ( 44.00000000000000000, 0.0000000000000000000, 0.0000000000000000000 ) ) ;
#25 = APPLICATION_PROTOCOL_DEFINITION ( 'draft international standard', 'automotive_design', 1998, #10 ) ;
#26 = ORIENTED_EDGE ( 'NONE', *, *, #167, .F. ) ;
#27 = SURFACE_SIDE_STYLE ('',( #157 ) ) ;
#28 = CIRCLE ( 'NONE', #181, 3.599999999999992095 ) ;
#29 = ORIENTED_EDGE ( 'NONE', *, *, #164, .T. ) ;
#30 =( GEOMETRIC_REPRESENTATION_CONTEXT ( 3 ) GLOBAL_UNCERTAINTY_ASSIGNED_CONTEXT ( ( #147 ) ) GLOBAL_UNIT_ASSIGNED_CONTEXT ( ( #90, #88, #78 ) ) REPRESENTATION_CONTEXT ( 'NONE', 'WORKASPACE' ) );
#31 = APPLICATION_PROTOCOL_DEFINITION ( 'draft international standard', 'automotive_design', 1998, #60 ) ;
#32 = STYLED_ITEM ( 'NONE', ( #3 ), #59 ) ;
#33 = AXIS2_PLACEMENT_3D ( 'NONE', #179, #102, #76 ) ;
#34 = FACE_OUTER_BOUND ( 'NONE', #14, .T. ) ;
#35 = DIRECTION ( 'NONE',  ( 1.000000000000000000, 0.0000000000000000000, 0.0000000000000000000 ) ) ;
#36 = EDGE_LOOP ( 'NONE', ( #45 ) ) ;
#37 = DIRECTION ( 'NONE',  ( 1.000000000000000000, 0.0000000000000000000, 0.0000000000000000000 ) ) ;
#38 = CARTESIAN_POINT ( 'NONE',  ( 0.9000000000000349942, 0.0000000000000000000, 0.0000000000000000000 ) ) ;
#39 = CARTESIAN_POINT ( 'NONE',  ( 0.0000000000000000000, 0.0000000000000000000, 0.0000000000000000000 ) ) ;
#40 = PLANE ( 'NONE',  #171 ) ;
#41 = PRESENTATION_STYLE_ASSIGNMENT (( #117 ) ) ;
#42 = CARTESIAN_POINT ( 'NONE',  ( 44.00000000000000000, 0.0000000000000000000, -4.500000000000007105 ) ) ;
#43 = CARTESIAN_POINT ( 'NONE',  ( 44.00000000000000000, 0.0000000000000000000, 0.0000000000000000000 ) ) ;
#44 = DIRECTION ( 'NONE',  ( 0.0000000000000000000, 0.0000000000000000000, -1.000000000000000000 ) ) ;
#45 = ORIENTED_EDGE ( 'NONE', *, *, #167, .T. ) ;
#46 =( GEOMETRIC_REPRESENTATION_CONTEXT ( 3 ) GLOBAL_UNCERTAINTY_ASSIGNED_CONTEXT ( ( #204 ) ) GLOBAL_UNIT_ASSIGNED_CONTEXT ( ( #81, #133, #210 ) ) REPRESENTATION_CONTEXT ( 'NONE', 'WORKASPACE' ) );
#47 = PLANE ( 'NONE',  #11 ) ;
#48 = ORIENTED_EDGE ( 'NONE', *, *, #6, .F. ) ;
#49 = ORIENTED_EDGE ( 'NONE', *, *, #164, .F. ) ;
#50 = CIRCLE ( 'NONE', #205, 4.500000000000007105 ) ;
#51 = EDGE_LOOP ( 'NONE', ( #196 ) ) ;
#52 =( GEOMETRIC_REPRESENTATION_CONTEXT ( 3 ) GLOBAL_UNCERTAINTY_ASSIGNED_CONTEXT ( ( #8 ) ) GLOBAL_UNIT_ASSIGNED_CONTEXT ( ( #126, #82, #15 ) ) REPRESENTATION_CONTEXT ( 'NONE', 'WORKASPACE' ) );
#53 = PRESENTATION_STYLE_ASSIGNMENT (( #83 ) ) ;
#54 = EDGE_LOOP ( 'NONE', ( #26 ) ) ;
#55 = EDGE_LOOP ( 'NONE', ( #29 ) ) ;
#56 = FACE_OUTER_BOUND ( 'NONE', #7, .T. ) ;
#57 = STYLED_ITEM ( 'NONE', ( #53 ), #200 ) ;
#58 = FILL_AREA_STYLE_COLOUR ( '', #85 ) ;
#59 = ADVANCED_FACE ( 'NONE', ( #113, #103 ), #156, .T. ) ;
#60 = APPLICATION_CONTEXT ( 'automotive_design' ) ;
#61 = ORIENTED_EDGE ( 'NONE', *, *, #144, .F. ) ;
#62 = PRODUCT_CONTEXT ( 'NONE', #60, 'mechanical' ) ;
#63 = CONICAL_SURFACE ( 'NONE', #199, 2414.213562373065542, 1.178097245096168200 ) ;
#64 = DIRECTION ( 'NONE',  ( 0.0000000000000000000, 0.0000000000000000000, -1.000000000000000000 ) ) ;
#65 = DIRECTION ( 'NONE',  ( 1.000000000000000000, 0.0000000000000000000, 0.0000000000000000000 ) ) ;
#66 = AXIS2_PLACEMENT_3D ( 'NONE', #110, #142, #191 ) ;
#67 = DIRECTION ( 'NONE',  ( 0.0000000000000000000, 0.0000000000000000000, 1.000000000000000000 ) ) ;
#68 = STYLED_ITEM ( 'NONE', ( #183 ), #73 ) ;
#69 = FILL_AREA_STYLE ('',( #58 ) ) ;
#70 =( LENGTH_UNIT ( ) NAMED_UNIT ( * ) SI_UNIT ( .MILLI., .METRE. ) );
#71 = ORIENTED_EDGE ( 'NONE', *, *, #144, .T. ) ;
#72 = EDGE_LOOP ( 'NONE', ( #77 ) ) ;
#73 = MANIFOLD_SOLID_BREP ( 'ºÐÇÒ2[1]', #131 ) ;
#74 = DIRECTION ( 'NONE',  ( 0.0000000000000000000, 0.0000000000000000000, -1.000000000000000000 ) ) ;
#75 = VERTEX_POINT ( 'NONE', #121 ) ;
#76 = DIRECTION ( 'NONE',  ( 1.000000000000000000, 0.0000000000000000000, 0.0000000000000000000 ) ) ;
#77 = ORIENTED_EDGE ( 'NONE', *, *, #154, .T. ) ;
#78 =( NAMED_UNIT ( * ) SI_UNIT ( $, .STERADIAN. ) SOLID_ANGLE_UNIT ( ) );
#79 = PRESENTATION_STYLE_ASSIGNMENT (( #132 ) ) ;
#80 = ADVANCED_FACE ( 'NONE', ( #107 ), #101, .F. ) ;
#81 =( LENGTH_UNIT ( ) NAMED_UNIT ( * ) SI_UNIT ( .MILLI., .METRE. ) );
#82 =( NAMED_UNIT ( * ) PLANE_ANGLE_UNIT ( ) SI_UNIT ( $, .RADIAN. ) );
#83 = SURFACE_STYLE_USAGE ( .BOTH. , #27 ) ;
#84 = AXIS2_PLACEMENT_3D ( 'NONE', #119, #65, #64 ) ;
#85 = COLOUR_RGB ( '',1.000000000000000000, 1.000000000000000000, 0.0000000000000000000 ) ;
#86 = SURFACE_STYLE_FILL_AREA ( #69 ) ;
#87 =( NAMED_UNIT ( * ) PLANE_ANGLE_UNIT ( ) SI_UNIT ( $, .RADIAN. ) );
#88 =( NAMED_UNIT ( * ) PLANE_ANGLE_UNIT ( ) SI_UNIT ( $, .RADIAN. ) );
#89 = EDGE_LOOP ( 'NONE', ( #48 ) ) ;
#90 =( LENGTH_UNIT ( ) NAMED_UNIT ( * ) SI_UNIT ( .MILLI., .METRE. ) );
#91 = FACE_OUTER_BOUND ( 'NONE', #72, .T. ) ;
#92 = FILL_AREA_STYLE_COLOUR ( '', #139 ) ;
#93 = SURFACE_STYLE_USAGE ( .BOTH. , #97 ) ;
#94 = AXIS2_PLACEMENT_3D ( 'NONE', #114, #122, #212 ) ;
#95 = DIRECTION ( 'NONE',  ( 1.000000000000000000, 0.0000000000000000000, 0.0000000000000000000 ) ) ;
#96 = CIRCLE ( 'NONE', #21, 4.500000000000007105 ) ;
#97 = SURFACE_SIDE_STYLE ('',( #141 ) ) ;
#98 = FILL_AREA_STYLE ('',( #99 ) ) ;
#99 = FILL_AREA_STYLE_COLOUR ( '', #140 ) ;
#100 = EDGE_LOOP ( 'NONE', ( #1 ) ) ;
#101 = PLANE ( 'NONE',  #84 ) ;
#102 = DIRECTION ( 'NONE',  ( 0.0000000000000000000, 0.0000000000000000000, 1.000000000000000000 ) ) ;
#103 = FACE_OUTER_BOUND ( 'NONE', #36, .T. ) ;
#104 = AXIS2_PLACEMENT_3D ( 'NONE', #39, #115, #130 ) ;
#105 = FILL_AREA_STYLE_COLOUR ( '', #12 ) ;
#106 = CYLINDRICAL_SURFACE ( 'NONE', #104, 4.500000000000007105 ) ;
#107 = FACE_OUTER_BOUND ( 'NONE', #55, .T. ) ;
#108 = CARTESIAN_POINT ( 'NONE',  ( 44.00000000000000000, 0.0000000000000000000, -4.500000000000007105 ) ) ;
#109 = AXIS2_PLACEMENT_3D ( 'NONE', #38, #35, #18 ) ;
#110 = CARTESIAN_POINT ( 'NONE',  ( -2.755455298081544285E-16, 0.0000000000000000000, 0.0000000000000000000 ) ) ;
#111 = CARTESIAN_POINT ( 'NONE',  ( 0.0000000000000000000, 0.0000000000000000000, 0.0000000000000000000 ) ) ;
#112 = DIRECTION ( 'NONE',  ( 0.0000000000000000000, 0.0000000000000000000, -1.000000000000000000 ) ) ;
#113 = FACE_OUTER_BOUND ( 'NONE', #51, .T. ) ;
#114 = CARTESIAN_POINT ( 'NONE',  ( 123.1360389693210493, 0.0000000000000000000, 0.0000000000000000000 ) ) ;
#115 = DIRECTION ( 'NONE',  ( -1.000000000000000000, -0.0000000000000000000, -0.0000000000000000000 ) ) ;
#116 = SURFACE_SIDE_STYLE ('',( #23 ) ) ;
#117 = SURFACE_STYLE_USAGE ( .BOTH. , #148 ) ;
#118 = CARTESIAN_POINT ( 'NONE',  ( 123.1360389693210493, 0.0000000000000000000, 4.500000000000014211 ) ) ;
#119 = CARTESIAN_POINT ( 'NONE',  ( -2.755455298081544285E-16, 4.500000000000000000, 0.0000000000000000000 ) ) ;
#120 = DIRECTION ( 'NONE',  ( 0.0000000000000000000, 0.0000000000000000000, 1.000000000000000000 ) ) ;
#121 = CARTESIAN_POINT ( 'NONE',  ( 0.9000000000000349942, 0.0000000000000000000, -4.500000000000007105 ) ) ;
#122 = DIRECTION ( 'NONE',  ( -1.000000000000000000, -0.0000000000000000000, -0.0000000000000000000 ) ) ;
#123 =( NAMED_UNIT ( * ) SI_UNIT ( $, .STERADIAN. ) SOLID_ANGLE_UNIT ( ) );
#124 = FILL_AREA_STYLE ('',( #105 ) ) ;
#125 = PRODUCT_DEFINITION_FORMATION_WITH_SPECIFIED_SOURCE ( 'ANY', '', #143, .NOT_KNOWN. ) ;
#126 =( LENGTH_UNIT ( ) NAMED_UNIT ( * ) SI_UNIT ( .MILLI., .METRE. ) );
#127 = UNCERTAINTY_MEASURE_WITH_UNIT (LENGTH_MEASURE( 1.000000000000000082E-05 ), #70, 'distance_accuracy_value', 'NONE');
#128 = PRODUCT_DEFINITION_CONTEXT ( 'detailed design', #10, 'design' ) ;
#129 = SHAPE_DEFINITION_REPRESENTATION ( #193, #176 ) ;
#130 = DIRECTION ( 'NONE',  ( 0.0000000000000000000, 0.0000000000000000000, 1.000000000000000000 ) ) ;
#131 = CLOSED_SHELL ( 'NONE', ( #168, #80, #209, #146 ) ) ;
#132 = SURFACE_STYLE_USAGE ( .BOTH. , #116 ) ;
#133 =( NAMED_UNIT ( * ) PLANE_ANGLE_UNIT ( ) SI_UNIT ( $, .RADIAN. ) );
#134 =( LENGTH_UNIT ( ) NAMED_UNIT ( * ) SI_UNIT ( .MILLI., .METRE. ) );
#135 = VERTEX_POINT ( 'NONE', #108 ) ;
#136 = DIRECTION ( 'NONE',  ( -1.000000000000000000, -0.0000000000000000000, -0.0000000000000000000 ) ) ;
#137 = AXIS2_PLACEMENT_3D ( 'NONE', #111, #151, #120 ) ;
#138 = SURFACE_SIDE_STYLE ('',( #86 ) ) ;
#139 = COLOUR_RGB ( '',1.000000000000000000, 1.000000000000000000, 0.0000000000000000000 ) ;
#140 = COLOUR_RGB ( '',0.7921568627450980005, 0.8196078431372548767, 0.9333333333333333481 ) ;
#141 = SURFACE_STYLE_FILL_AREA ( #98 ) ;
#142 = DIRECTION ( 'NONE',  ( 1.000000000000000000, 0.0000000000000000000, 0.0000000000000000000 ) ) ;
#143 = PRODUCT ( '03-1696', '03-1696', '', ( #62 ) ) ;
#144 = EDGE_CURVE ( 'NONE', #135, #135, #50, .T. ) ;
#145 = CIRCLE ( 'NONE', #94, 4.500000000000014211 ) ;
#146 = ADVANCED_FACE ( 'NONE', ( #56 ), #47, .T. ) ;
#147 = UNCERTAINTY_MEASURE_WITH_UNIT (LENGTH_MEASURE( 1.000000000000000082E-05 ), #90, 'distance_accuracy_value', 'NONE');
#148 = SURFACE_SIDE_STYLE ('',( #206 ) ) ;
#149 = FACE_OUTER_BOUND ( 'NONE', #54, .T. ) ;
#150 = MECHANICAL_DESIGN_GEOMETRIC_PRESENTATION_REPRESENTATION (  '', ( #68 ), #30 ) ;
#151 = DIRECTION ( 'NONE',  ( -1.000000000000000000, -0.0000000000000000000, -0.0000000000000000000 ) ) ;
#152 = DIRECTION ( 'NONE',  ( 1.000000000000000000, 0.0000000000000000000, 0.0000000000000000000 ) ) ;
#153 =( NAMED_UNIT ( * ) PLANE_ANGLE_UNIT ( ) SI_UNIT ( $, .RADIAN. ) );
#154 = EDGE_CURVE ( 'NONE', #75, #75, #174, .T. ) ;
#155 =( LENGTH_UNIT ( ) NAMED_UNIT ( * ) SI_UNIT ( .MILLI., .METRE. ) );
#156 = CYLINDRICAL_SURFACE ( 'NONE', #137, 4.500000000000007105 ) ;
#157 = SURFACE_STYLE_FILL_AREA ( #197 ) ;
#158 = MECHANICAL_DESIGN_GEOMETRIC_PRESENTATION_REPRESENTATION (  '', ( #32 ), #173 ) ;
#159 = ADVANCED_FACE ( 'NONE', ( #17 ), #40, .F. ) ;
#160 = FACE_OUTER_BOUND ( 'NONE', #100, .T. ) ;
#161 = UNCERTAINTY_MEASURE_WITH_UNIT (LENGTH_MEASURE( 1.000000000000000082E-05 ), #155, 'distance_accuracy_value', 'NONE');
#162 = CARTESIAN_POINT ( 'NONE',  ( 44.00000000000000000, 0.0000000000000000000, 0.0000000000000000000 ) ) ;
#163 = FILL_AREA_STYLE ('',( #201 ) ) ;
#164 = EDGE_CURVE ( 'NONE', #195, #195, #28, .T. ) ;
#165 = DIRECTION ( 'NONE',  ( -1.000000000000000000, -0.0000000000000000000, -0.0000000000000000000 ) ) ;
#166 = UNCERTAINTY_MEASURE_WITH_UNIT (LENGTH_MEASURE( 1.000000000000000082E-05 ), #134, 'distance_accuracy_value', 'NONE');
#167 = EDGE_CURVE ( 'NONE', #198, #198, #145, .T. ) ;
#168 = ADVANCED_FACE ( 'NONE', ( #91, #34 ), #106, .T. ) ;
#169 = DIRECTION ( 'NONE',  ( 0.0000000000000000000, 0.0000000000000000000, -1.000000000000000000 ) ) ;
#170 = CARTESIAN_POINT ( 'NONE',  ( -2.755455298081544285E-16, 0.0000000000000000000, 0.0000000000000000000 ) ) ;
#171 = AXIS2_PLACEMENT_3D ( 'NONE', #43, #5, #2 ) ;
#172 =( NAMED_UNIT ( * ) PLANE_ANGLE_UNIT ( ) SI_UNIT ( $, .RADIAN. ) );
#173 =( GEOMETRIC_REPRESENTATION_CONTEXT ( 3 ) GLOBAL_UNCERTAINTY_ASSIGNED_CONTEXT ( ( #127 ) ) GLOBAL_UNIT_ASSIGNED_CONTEXT ( ( #70, #87, #123 ) ) REPRESENTATION_CONTEXT ( 'NONE', 'WORKASPACE' ) );
#174 = CIRCLE ( 'NONE', #109, 4.500000000000007105 ) ;
#175 = PRESENTATION_LAYER_ASSIGNMENT (  '', '', ( #57 ) ) ;
#176 = ADVANCED_BREP_SHAPE_REPRESENTATION ( '03-1696', ( #73, #177, #33 ), #46 ) ;
#177 = MANIFOLD_SOLID_BREP ( 'ºÐÇÒ2[2]', #20 ) ;
#178 =( NAMED_UNIT ( * ) SI_UNIT ( $, .STERADIAN. ) SOLID_ANGLE_UNIT ( ) );
#179 = CARTESIAN_POINT ( 'NONE',  ( 0.0000000000000000000, 0.0000000000000000000, 0.0000000000000000000 ) ) ;
#180 = PRESENTATION_LAYER_ASSIGNMENT (  '', '', ( #208 ) ) ;
#181 = AXIS2_PLACEMENT_3D ( 'NONE', #170, #165, #112 ) ;
#182 = EDGE_LOOP ( 'NONE', ( #49 ) ) ;
#183 = PRESENTATION_STYLE_ASSIGNMENT (( #93 ) ) ;
#184 = PRODUCT_DEFINITION ( 'UNKNOWN', '', #125, #128 ) ;
#185 = SURFACE_STYLE_USAGE ( .BOTH. , #138 ) ;
#186 = CARTESIAN_POINT ( 'NONE',  ( -875.0000000000000000, 0.0000000000000000000, 0.0000000000000000000 ) ) ;
#187 = MECHANICAL_DESIGN_GEOMETRIC_PRESENTATION_REPRESENTATION (  '', ( #208 ), #16 ) ;
#188 =( NAMED_UNIT ( * ) SI_UNIT ( $, .STERADIAN. ) SOLID_ANGLE_UNIT ( ) );
#189 = CARTESIAN_POINT ( 'NONE',  ( -2.755455298081544285E-16, 0.0000000000000000000, -3.599999999999992095 ) ) ;
#190 = CONICAL_SURFACE ( 'NONE', #66, 3.599999999999992095, 0.7853981633974372878 ) ;
#191 = DIRECTION ( 'NONE',  ( 0.0000000000000000000, 0.0000000000000000000, -1.000000000000000000 ) ) ;
#192 = PRESENTATION_LAYER_ASSIGNMENT (  '', '', ( #32 ) ) ;
#193 = PRODUCT_DEFINITION_SHAPE ( 'NONE', 'NONE',  #184 ) ;
#194 = PRESENTATION_LAYER_ASSIGNMENT (  '', '', ( #203 ) ) ;
#195 = VERTEX_POINT ( 'NONE', #189 ) ;
#196 = ORIENTED_EDGE ( 'NONE', *, *, #6, .T. ) ;
#197 = FILL_AREA_STYLE ('',( #92 ) ) ;
#198 = VERTEX_POINT ( 'NONE', #118 ) ;
#199 = AXIS2_PLACEMENT_3D ( 'NONE', #186, #136, #67 ) ;
#200 = ADVANCED_FACE ( 'NONE', ( #149 ), #63, .T. ) ;
#201 = FILL_AREA_STYLE_COLOUR ( '', #202 ) ;
#202 = COLOUR_RGB ( '',0.7921568627450980005, 0.8196078431372548767, 0.9333333333333333481 ) ;
#203 = STYLED_ITEM ( 'NONE', ( #79 ), #176 ) ;
#204 = UNCERTAINTY_MEASURE_WITH_UNIT (LENGTH_MEASURE( 1.000000000000000082E-05 ), #81, 'distance_accuracy_value', 'NONE');
#205 = AXIS2_PLACEMENT_3D ( 'NONE', #162, #95, #169 ) ;
#206 = SURFACE_STYLE_FILL_AREA ( #163 ) ;
#207 =( GEOMETRIC_REPRESENTATION_CONTEXT ( 3 ) GLOBAL_UNCERTAINTY_ASSIGNED_CONTEXT ( ( #166 ) ) GLOBAL_UNIT_ASSIGNED_CONTEXT ( ( #134, #172, #178 ) ) REPRESENTATION_CONTEXT ( 'NONE', 'WORKASPACE' ) );
#208 = STYLED_ITEM ( 'NONE', ( #41 ), #177 ) ;
#209 = ADVANCED_FACE ( 'NONE', ( #160, #19 ), #190, .T. ) ;
#210 =( NAMED_UNIT ( * ) SI_UNIT ( $, .STERADIAN. ) SOLID_ANGLE_UNIT ( ) );
#211 = PRESENTATION_LAYER_ASSIGNMENT (  '', '', ( #68 ) ) ;
#212 = DIRECTION ( 'NONE',  ( 0.0000000000000000000, 0.0000000000000000000, 1.000000000000000000 ) ) ;
#213 = MECHANICAL_DESIGN_GEOMETRIC_PRESENTATION_REPRESENTATION (  '', ( #57 ), #207 ) ;
ENDSEC;
END-ISO-10303-21;
