ISO-10303-21;
HEADER;
FILE_DESCRIPTION (( 'STEP AP214' ),
    '1' );
FILE_NAME ('03-1697.STEP',
    '2021-10-01T05:42:32',
    ( 'USER' ),
    ( '' ),
    'SwSTEP 2.0',
    'SolidWorks 2018',
    '' );
FILE_SCHEMA (( 'AUTOMOTIVE_DESIGN' ));
ENDSEC;

DATA;
#1 = MECHANICAL_DESIGN_GEOMETRIC_PRESENTATION_REPRESENTATION (  '', ( #42 ), #207 ) ;
#2 = ADVANCED_FACE ( 'NONE', ( #143 ), #26, .F. ) ;
#3 = FILL_AREA_STYLE_COLOUR ( '', #38 ) ;
#4 = FACE_OUTER_BOUND ( 'NONE', #193, .T. ) ;
#5 = PRODUCT_DEFINITION_CONTEXT ( 'detailed design', #72, 'design' ) ;
#6 = DIRECTION ( 'NONE',  ( 1.000000000000000000, 0.0000000000000000000, 0.0000000000000000000 ) ) ;
#7 = UNCERTAINTY_MEASURE_WITH_UNIT (LENGTH_MEASURE( 1.000000000000000082E-05 ), #133, 'distance_accuracy_value', 'NONE');
#8 = FILL_AREA_STYLE ('',( #3 ) ) ;
#9 = AXIS2_PLACEMENT_3D ( 'NONE', #98, #78, #209 ) ;
#10 = DIRECTION ( 'NONE',  ( 0.0000000000000000000, 0.0000000000000000000, -1.000000000000000000 ) ) ;
#11 = DIRECTION ( 'NONE',  ( 1.000000000000000000, 0.0000000000000000000, 0.0000000000000000000 ) ) ;
#12 = AXIS2_PLACEMENT_3D ( 'NONE', #47, #6, #65 ) ;
#13 = CARTESIAN_POINT ( 'NONE',  ( 0.9099999999999930367, 0.0000000000000000000, 0.0000000000000000000 ) ) ;
#14 = DIRECTION ( 'NONE',  ( 1.000000000000000000, 0.0000000000000000000, 0.0000000000000000000 ) ) ;
#15 = EDGE_LOOP ( 'NONE', ( #177 ) ) ;
#16 = PLANE ( 'NONE',  #144 ) ;
#17 = CARTESIAN_POINT ( 'NONE',  ( 44.00000000000000000, 0.0000000000000000000, 0.0000000000000000000 ) ) ;
#18 = PRESENTATION_LAYER_ASSIGNMENT (  '', '', ( #42 ) ) ;
#19 = CLOSED_SHELL ( 'NONE', ( #2, #203, #126 ) ) ;
#20 = DIRECTION ( 'NONE',  ( 1.000000000000000000, 0.0000000000000000000, 0.0000000000000000000 ) ) ;
#21 = SURFACE_STYLE_USAGE ( .BOTH. , #76 ) ;
#22 = DIRECTION ( 'NONE',  ( 0.0000000000000000000, 0.0000000000000000000, -1.000000000000000000 ) ) ;
#23 = ORIENTED_EDGE ( 'NONE', *, *, #27, .F. ) ;
#24 = DIRECTION ( 'NONE',  ( -1.000000000000000000, -0.0000000000000000000, -0.0000000000000000000 ) ) ;
#25 = CONICAL_SURFACE ( 'NONE', #112, 3.640000000000018332, 0.7853981633974458365 ) ;
#26 = PLANE ( 'NONE',  #195 ) ;
#27 = EDGE_CURVE ( 'NONE', #202, #202, #48, .T. ) ;
#28 = DIRECTION ( 'NONE',  ( 1.000000000000000000, 0.0000000000000000000, 0.0000000000000000000 ) ) ;
#29 =( LENGTH_UNIT ( ) NAMED_UNIT ( * ) SI_UNIT ( .MILLI., .METRE. ) );
#30 = ADVANCED_FACE ( 'NONE', ( #197 ), #43, .F. ) ;
#31 = MECHANICAL_DESIGN_GEOMETRIC_PRESENTATION_REPRESENTATION (  '', ( #211 ), #104 ) ;
#32 = CARTESIAN_POINT ( 'NONE',  ( 0.0000000000000000000, 0.0000000000000000000, 0.0000000000000000000 ) ) ;
#33 = DIRECTION ( 'NONE',  ( -1.000000000000000000, -0.0000000000000000000, -0.0000000000000000000 ) ) ;
#34 = UNCERTAINTY_MEASURE_WITH_UNIT (LENGTH_MEASURE( 1.000000000000000082E-05 ), #29, 'distance_accuracy_value', 'NONE');
#35 = APPLICATION_CONTEXT ( 'automotive_design' ) ;
#36 = STYLED_ITEM ( 'NONE', ( #186 ), #126 ) ;
#37 = ORIENTED_EDGE ( 'NONE', *, *, #163, .T. ) ;
#38 = COLOUR_RGB ( '',0.7921568627450980005, 0.8196078431372548767, 0.9333333333333333481 ) ;
#39 = SURFACE_SIDE_STYLE ('',( #178 ) ) ;
#40 =( NAMED_UNIT ( * ) SI_UNIT ( $, .STERADIAN. ) SOLID_ANGLE_UNIT ( ) );
#41 = DIRECTION ( 'NONE',  ( 0.0000000000000000000, 0.0000000000000000000, -1.000000000000000000 ) ) ;
#42 = STYLED_ITEM ( 'NONE', ( #134 ), #203 ) ;
#43 = PLANE ( 'NONE',  #12 ) ;
#44 = APPLICATION_PROTOCOL_DEFINITION ( 'draft international standard', 'automotive_design', 1998, #35 ) ;
#45 = CARTESIAN_POINT ( 'NONE',  ( -875.0000000000000000, 0.0000000000000000000, 0.0000000000000000000 ) ) ;
#46 = FILL_AREA_STYLE_COLOUR ( '', #148 ) ;
#47 = CARTESIAN_POINT ( 'NONE',  ( -2.786071468060228170E-16, 4.549999999999999822, 0.0000000000000000000 ) ) ;
#48 = CIRCLE ( 'NONE', #63, 4.550000000000006928 ) ;
#49 =( NAMED_UNIT ( * ) PLANE_ANGLE_UNIT ( ) SI_UNIT ( $, .RADIAN. ) );
#50 = DIRECTION ( 'NONE',  ( 1.000000000000000000, 0.0000000000000000000, 0.0000000000000000000 ) ) ;
#51 = FILL_AREA_STYLE ('',( #93 ) ) ;
#52 = SHAPE_DEFINITION_REPRESENTATION ( #135, #204 ) ;
#53 = FILL_AREA_STYLE ('',( #46 ) ) ;
#54 = APPLICATION_PROTOCOL_DEFINITION ( 'draft international standard', 'automotive_design', 1998, #72 ) ;
#55 = PRESENTATION_LAYER_ASSIGNMENT (  '', '', ( #212 ) ) ;
#56 =( GEOMETRIC_REPRESENTATION_CONTEXT ( 3 ) GLOBAL_UNCERTAINTY_ASSIGNED_CONTEXT ( ( #34 ) ) GLOBAL_UNIT_ASSIGNED_CONTEXT ( ( #29, #162, #57 ) ) REPRESENTATION_CONTEXT ( 'NONE', 'WORKASPACE' ) );
#57 =( NAMED_UNIT ( * ) SI_UNIT ( $, .STERADIAN. ) SOLID_ANGLE_UNIT ( ) );
#58 = DIRECTION ( 'NONE',  ( 0.0000000000000000000, 0.0000000000000000000, 1.000000000000000000 ) ) ;
#59 = FACE_OUTER_BOUND ( 'NONE', #15, .T. ) ;
#60 = DIRECTION ( 'NONE',  ( 0.0000000000000000000, 0.0000000000000000000, -1.000000000000000000 ) ) ;
#61 = FACE_OUTER_BOUND ( 'NONE', #146, .T. ) ;
#62 = DIRECTION ( 'NONE',  ( 0.0000000000000000000, 0.0000000000000000000, 1.000000000000000000 ) ) ;
#63 = AXIS2_PLACEMENT_3D ( 'NONE', #17, #14, #41 ) ;
#64 = PRODUCT_RELATED_PRODUCT_CATEGORY ( 'part', '', ( #198 ) ) ;
#65 = DIRECTION ( 'NONE',  ( 0.0000000000000000000, 0.0000000000000000000, -1.000000000000000000 ) ) ;
#66 = FACE_BOUND ( 'NONE', #151, .T. ) ;
#67 = PRESENTATION_STYLE_ASSIGNMENT (( #21 ) ) ;
#68 = PRESENTATION_LAYER_ASSIGNMENT (  '', '', ( #36 ) ) ;
#69 = UNCERTAINTY_MEASURE_WITH_UNIT (LENGTH_MEASURE( 1.000000000000000082E-05 ), #108, 'distance_accuracy_value', 'NONE');
#70 = CARTESIAN_POINT ( 'NONE',  ( -2.786071468060228170E-16, 0.0000000000000000000, 0.0000000000000000000 ) ) ;
#71 = EDGE_LOOP ( 'NONE', ( #171 ) ) ;
#72 = APPLICATION_CONTEXT ( 'automotive_design' ) ;
#73 = PRODUCT_CONTEXT ( 'NONE', #35, 'mechanical' ) ;
#74 = DIRECTION ( 'NONE',  ( 0.0000000000000000000, 0.0000000000000000000, 1.000000000000000000 ) ) ;
#75 = DIRECTION ( 'NONE',  ( 1.000000000000000000, 0.0000000000000000000, 0.0000000000000000000 ) ) ;
#76 = SURFACE_SIDE_STYLE ('',( #182 ) ) ;
#77 = DIRECTION ( 'NONE',  ( 0.0000000000000000000, 0.0000000000000000000, 1.000000000000000000 ) ) ;
#78 = DIRECTION ( 'NONE',  ( 1.000000000000000000, 0.0000000000000000000, 0.0000000000000000000 ) ) ;
#79 = CARTESIAN_POINT ( 'NONE',  ( 0.0000000000000000000, 0.0000000000000000000, 0.0000000000000000000 ) ) ;
#80 =( NAMED_UNIT ( * ) SI_UNIT ( $, .STERADIAN. ) SOLID_ANGLE_UNIT ( ) );
#81 = SURFACE_SIDE_STYLE ('',( #86 ) ) ;
#82 = CARTESIAN_POINT ( 'NONE',  ( 0.9099999999999930367, 0.0000000000000000000, -4.550000000000006928 ) ) ;
#83 = DIRECTION ( 'NONE',  ( 0.0000000000000000000, 0.0000000000000000000, -1.000000000000000000 ) ) ;
#84 = AXIS2_PLACEMENT_3D ( 'NONE', #79, #77, #75 ) ;
#85 = CARTESIAN_POINT ( 'NONE',  ( 44.00000000000000000, 0.0000000000000000000, -4.550000000000006928 ) ) ;
#86 = SURFACE_STYLE_FILL_AREA ( #210 ) ;
#87 =( NAMED_UNIT ( * ) PLANE_ANGLE_UNIT ( ) SI_UNIT ( $, .RADIAN. ) );
#88 = CARTESIAN_POINT ( 'NONE',  ( 44.00000000000000000, 0.0000000000000000000, -4.550000000000006928 ) ) ;
#89 = EDGE_LOOP ( 'NONE', ( #139 ) ) ;
#90 =( LENGTH_UNIT ( ) NAMED_UNIT ( * ) SI_UNIT ( .MILLI., .METRE. ) );
#91 = CYLINDRICAL_SURFACE ( 'NONE', #185, 4.550000000000006928 ) ;
#92 = COLOUR_RGB ( '',1.000000000000000000, 1.000000000000000000, 0.0000000000000000000 ) ;
#93 = FILL_AREA_STYLE_COLOUR ( '', #92 ) ;
#94 = CARTESIAN_POINT ( 'NONE',  ( 0.0000000000000000000, 0.0000000000000000000, 0.0000000000000000000 ) ) ;
#95 = CARTESIAN_POINT ( 'NONE',  ( 123.1153282912023883, 0.0000000000000000000, 4.550000000000014921 ) ) ;
#96 = ORIENTED_EDGE ( 'NONE', *, *, #173, .T. ) ;
#97 = CIRCLE ( 'NONE', #191, 4.550000000000014921 ) ;
#98 = CARTESIAN_POINT ( 'NONE',  ( 44.00000000000000000, 0.0000000000000000000, 0.0000000000000000000 ) ) ;
#99 = DIRECTION ( 'NONE',  ( -1.000000000000000000, -0.0000000000000000000, -0.0000000000000000000 ) ) ;
#100 = UNCERTAINTY_MEASURE_WITH_UNIT (LENGTH_MEASURE( 1.000000000000000082E-05 ), #141, 'distance_accuracy_value', 'NONE');
#101 =( NAMED_UNIT ( * ) SI_UNIT ( $, .STERADIAN. ) SOLID_ANGLE_UNIT ( ) );
#102 = DIRECTION ( 'NONE',  ( -1.000000000000000000, -0.0000000000000000000, -0.0000000000000000000 ) ) ;
#103 = FILL_AREA_STYLE ('',( #179 ) ) ;
#104 =( GEOMETRIC_REPRESENTATION_CONTEXT ( 3 ) GLOBAL_UNCERTAINTY_ASSIGNED_CONTEXT ( ( #181 ) ) GLOBAL_UNIT_ASSIGNED_CONTEXT ( ( #175, #49, #113 ) ) REPRESENTATION_CONTEXT ( 'NONE', 'WORKASPACE' ) );
#105 = COLOUR_RGB ( '',0.7921568627450980005, 0.8196078431372548767, 0.9333333333333333481 ) ;
#106 = FILL_AREA_STYLE_COLOUR ( '', #152 ) ;
#107 =( NAMED_UNIT ( * ) PLANE_ANGLE_UNIT ( ) SI_UNIT ( $, .RADIAN. ) );
#108 =( LENGTH_UNIT ( ) NAMED_UNIT ( * ) SI_UNIT ( .MILLI., .METRE. ) );
#109 = CARTESIAN_POINT ( 'NONE',  ( 44.00000000000000000, 0.0000000000000000000, 0.0000000000000000000 ) ) ;
#110 = ADVANCED_FACE ( 'NONE', ( #61 ), #16, .T. ) ;
#111 = CARTESIAN_POINT ( 'NONE',  ( -2.786071468060228170E-16, 0.0000000000000000000, 0.0000000000000000000 ) ) ;
#112 = AXIS2_PLACEMENT_3D ( 'NONE', #70, #20, #83 ) ;
#113 =( NAMED_UNIT ( * ) SI_UNIT ( $, .STERADIAN. ) SOLID_ANGLE_UNIT ( ) );
#114 =( NAMED_UNIT ( * ) SI_UNIT ( $, .STERADIAN. ) SOLID_ANGLE_UNIT ( ) );
#115 = EDGE_LOOP ( 'NONE', ( #170 ) ) ;
#116 =( NAMED_UNIT ( * ) PLANE_ANGLE_UNIT ( ) SI_UNIT ( $, .RADIAN. ) );
#117 = CYLINDRICAL_SURFACE ( 'NONE', #192, 4.550000000000006928 ) ;
#118 = SURFACE_SIDE_STYLE ('',( #132 ) ) ;
#119 = STYLED_ITEM ( 'NONE', ( #67 ), #120 ) ;
#120 = MANIFOLD_SOLID_BREP ( 'ºÐÇÒ2[2]', #19 ) ;
#121 = MECHANICAL_DESIGN_GEOMETRIC_PRESENTATION_REPRESENTATION (  '', ( #212 ), #128 ) ;
#122 = MANIFOLD_SOLID_BREP ( 'ºÐÇÒ2[1]', #200 ) ;
#123 = MECHANICAL_DESIGN_GEOMETRIC_PRESENTATION_REPRESENTATION (  '', ( #119 ), #56 ) ;
#124 = SURFACE_STYLE_USAGE ( .BOTH. , #81 ) ;
#125 = AXIS2_PLACEMENT_3D ( 'NONE', #45, #145, #62 ) ;
#126 = ADVANCED_FACE ( 'NONE', ( #157 ), #213, .T. ) ;
#127 = PRODUCT_DEFINITION ( 'UNKNOWN', '', #136, #5 ) ;
#128 =( GEOMETRIC_REPRESENTATION_CONTEXT ( 3 ) GLOBAL_UNCERTAINTY_ASSIGNED_CONTEXT ( ( #100 ) ) GLOBAL_UNIT_ASSIGNED_CONTEXT ( ( #141, #116, #40 ) ) REPRESENTATION_CONTEXT ( 'NONE', 'WORKASPACE' ) );
#129 = CARTESIAN_POINT ( 'NONE',  ( -2.786071468060228170E-16, 0.0000000000000000000, -3.640000000000018332 ) ) ;
#130 = SURFACE_STYLE_FILL_AREA ( #8 ) ;
#131 = ORIENTED_EDGE ( 'NONE', *, *, #168, .F. ) ;
#132 = SURFACE_STYLE_FILL_AREA ( #51 ) ;
#133 =( LENGTH_UNIT ( ) NAMED_UNIT ( * ) SI_UNIT ( .MILLI., .METRE. ) );
#134 = PRESENTATION_STYLE_ASSIGNMENT (( #124 ) ) ;
#135 = PRODUCT_DEFINITION_SHAPE ( 'NONE', 'NONE',  #127 ) ;
#136 = PRODUCT_DEFINITION_FORMATION_WITH_SPECIFIED_SOURCE ( 'ANY', '', #198, .NOT_KNOWN. ) ;
#137 = EDGE_LOOP ( 'NONE', ( #37 ) ) ;
#138 = ORIENTED_EDGE ( 'NONE', *, *, #168, .T. ) ;
#139 = ORIENTED_EDGE ( 'NONE', *, *, #27, .T. ) ;
#140 = AXIS2_PLACEMENT_3D ( 'NONE', #13, #11, #10 ) ;
#141 =( LENGTH_UNIT ( ) NAMED_UNIT ( * ) SI_UNIT ( .MILLI., .METRE. ) );
#142 = CIRCLE ( 'NONE', #9, 4.550000000000006928 ) ;
#143 = FACE_OUTER_BOUND ( 'NONE', #169, .T. ) ;
#144 = AXIS2_PLACEMENT_3D ( 'NONE', #199, #50, #60 ) ;
#145 = DIRECTION ( 'NONE',  ( -1.000000000000000000, -0.0000000000000000000, -0.0000000000000000000 ) ) ;
#146 = EDGE_LOOP ( 'NONE', ( #138 ) ) ;
#147 =( NAMED_UNIT ( * ) PLANE_ANGLE_UNIT ( ) SI_UNIT ( $, .RADIAN. ) );
#148 = COLOUR_RGB ( '',0.7921568627450980005, 0.8196078431372548767, 0.9333333333333333481 ) ;
#149 = CARTESIAN_POINT ( 'NONE',  ( 123.1153282912023883, 0.0000000000000000000, 0.0000000000000000000 ) ) ;
#150 = VERTEX_POINT ( 'NONE', #82 ) ;
#151 = EDGE_LOOP ( 'NONE', ( #188 ) ) ;
#152 = COLOUR_RGB ( '',1.000000000000000000, 1.000000000000000000, 0.0000000000000000000 ) ;
#153 = SURFACE_STYLE_USAGE ( .BOTH. , #39 ) ;
#154 = EDGE_CURVE ( 'NONE', #176, #176, #180, .T. ) ;
#155 = VERTEX_POINT ( 'NONE', #88 ) ;
#156 = FACE_OUTER_BOUND ( 'NONE', #137, .T. ) ;
#157 = FACE_OUTER_BOUND ( 'NONE', #115, .T. ) ;
#158 = DIRECTION ( 'NONE',  ( 0.0000000000000000000, 0.0000000000000000000, 1.000000000000000000 ) ) ;
#159 = EDGE_LOOP ( 'NONE', ( #131 ) ) ;
#160 = PRESENTATION_LAYER_ASSIGNMENT (  '', '', ( #119 ) ) ;
#161 = CIRCLE ( 'NONE', #140, 4.550000000000006928 ) ;
#162 =( NAMED_UNIT ( * ) PLANE_ANGLE_UNIT ( ) SI_UNIT ( $, .RADIAN. ) );
#163 = EDGE_CURVE ( 'NONE', #150, #150, #161, .T. ) ;
#164 = ADVANCED_FACE ( 'NONE', ( #156, #196 ), #91, .T. ) ;
#165 = UNCERTAINTY_MEASURE_WITH_UNIT (LENGTH_MEASURE( 1.000000000000000082E-05 ), #90, 'distance_accuracy_value', 'NONE');
#166 = DIRECTION ( 'NONE',  ( 0.0000000000000000000, 0.0000000000000000000, -1.000000000000000000 ) ) ;
#167 = FACE_OUTER_BOUND ( 'NONE', #89, .T. ) ;
#168 = EDGE_CURVE ( 'NONE', #155, #155, #142, .T. ) ;
#169 = EDGE_LOOP ( 'NONE', ( #23 ) ) ;
#170 = ORIENTED_EDGE ( 'NONE', *, *, #173, .F. ) ;
#171 = ORIENTED_EDGE ( 'NONE', *, *, #154, .T. ) ;
#172 = ADVANCED_FACE ( 'NONE', ( #59, #66 ), #25, .T. ) ;
#173 = EDGE_CURVE ( 'NONE', #206, #206, #97, .T. ) ;
#174 =( GEOMETRIC_REPRESENTATION_CONTEXT ( 3 ) GLOBAL_UNCERTAINTY_ASSIGNED_CONTEXT ( ( #165 ) ) GLOBAL_UNIT_ASSIGNED_CONTEXT ( ( #90, #87, #80 ) ) REPRESENTATION_CONTEXT ( 'NONE', 'WORKASPACE' ) );
#175 =( LENGTH_UNIT ( ) NAMED_UNIT ( * ) SI_UNIT ( .MILLI., .METRE. ) );
#176 = VERTEX_POINT ( 'NONE', #129 ) ;
#177 = ORIENTED_EDGE ( 'NONE', *, *, #163, .F. ) ;
#178 = SURFACE_STYLE_FILL_AREA ( #53 ) ;
#179 = FILL_AREA_STYLE_COLOUR ( '', #105 ) ;
#180 = CIRCLE ( 'NONE', #187, 3.640000000000018332 ) ;
#181 = UNCERTAINTY_MEASURE_WITH_UNIT (LENGTH_MEASURE( 1.000000000000000082E-05 ), #175, 'distance_accuracy_value', 'NONE');
#182 = SURFACE_STYLE_FILL_AREA ( #103 ) ;
#183 =( GEOMETRIC_REPRESENTATION_CONTEXT ( 3 ) GLOBAL_UNCERTAINTY_ASSIGNED_CONTEXT ( ( #7 ) ) GLOBAL_UNIT_ASSIGNED_CONTEXT ( ( #133, #107, #101 ) ) REPRESENTATION_CONTEXT ( 'NONE', 'WORKASPACE' ) );
#184 = PRESENTATION_STYLE_ASSIGNMENT (( #189 ) ) ;
#185 = AXIS2_PLACEMENT_3D ( 'NONE', #32, #33, #58 ) ;
#186 = PRESENTATION_STYLE_ASSIGNMENT (( #190 ) ) ;
#187 = AXIS2_PLACEMENT_3D ( 'NONE', #111, #24, #22 ) ;
#188 = ORIENTED_EDGE ( 'NONE', *, *, #154, .F. ) ;
#189 = SURFACE_STYLE_USAGE ( .BOTH. , #194 ) ;
#190 = SURFACE_STYLE_USAGE ( .BOTH. , #118 ) ;
#191 = AXIS2_PLACEMENT_3D ( 'NONE', #149, #99, #158 ) ;
#192 = AXIS2_PLACEMENT_3D ( 'NONE', #94, #102, #74 ) ;
#193 = EDGE_LOOP ( 'NONE', ( #96 ) ) ;
#194 = SURFACE_SIDE_STYLE ('',( #130 ) ) ;
#195 = AXIS2_PLACEMENT_3D ( 'NONE', #109, #28, #166 ) ;
#196 = FACE_OUTER_BOUND ( 'NONE', #159, .T. ) ;
#197 = FACE_OUTER_BOUND ( 'NONE', #71, .T. ) ;
#198 = PRODUCT ( '03-1697', '03-1697', '', ( #73 ) ) ;
#199 = CARTESIAN_POINT ( 'NONE',  ( 44.00000000000000000, 0.0000000000000000000, 0.0000000000000000000 ) ) ;
#200 = CLOSED_SHELL ( 'NONE', ( #164, #30, #172, #110 ) ) ;
#201 = PRESENTATION_LAYER_ASSIGNMENT (  '', '', ( #211 ) ) ;
#202 = VERTEX_POINT ( 'NONE', #85 ) ;
#203 = ADVANCED_FACE ( 'NONE', ( #167, #4 ), #117, .T. ) ;
#204 = ADVANCED_BREP_SHAPE_REPRESENTATION ( '03-1697', ( #122, #120, #84 ), #183 ) ;
#205 = MECHANICAL_DESIGN_GEOMETRIC_PRESENTATION_REPRESENTATION (  '', ( #36 ), #174 ) ;
#206 = VERTEX_POINT ( 'NONE', #95 ) ;
#207 =( GEOMETRIC_REPRESENTATION_CONTEXT ( 3 ) GLOBAL_UNCERTAINTY_ASSIGNED_CONTEXT ( ( #69 ) ) GLOBAL_UNIT_ASSIGNED_CONTEXT ( ( #108, #147, #114 ) ) REPRESENTATION_CONTEXT ( 'NONE', 'WORKASPACE' ) );
#208 = PRESENTATION_STYLE_ASSIGNMENT (( #153 ) ) ;
#209 = DIRECTION ( 'NONE',  ( 0.0000000000000000000, 0.0000000000000000000, -1.000000000000000000 ) ) ;
#210 = FILL_AREA_STYLE ('',( #106 ) ) ;
#211 = STYLED_ITEM ( 'NONE', ( #184 ), #204 ) ;
#212 = STYLED_ITEM ( 'NONE', ( #208 ), #122 ) ;
#213 = CONICAL_SURFACE ( 'NONE', #125, 2414.213562373070545, 1.178097245096168866 ) ;
ENDSEC;
END-ISO-10303-21;
