ISO-10303-21;
HEADER;
FILE_DESCRIPTION (( 'STEP AP214' ),
    '1' );
FILE_NAME ('03-1698.STEP',
    '2021-10-01T05:42:51',
    ( 'USER' ),
    ( '' ),
    'SwSTEP 2.0',
    'SolidWorks 2018',
    '' );
FILE_SCHEMA (( 'AUTOMOTIVE_DESIGN' ));
ENDSEC;

DATA;
#1 =( GEOMETRIC_REPRESENTATION_CONTEXT ( 3 ) GLOBAL_UNCERTAINTY_ASSIGNED_CONTEXT ( ( #211 ) ) GLOBAL_UNIT_ASSIGNED_CONTEXT ( ( #126, #2, #112 ) ) REPRESENTATION_CONTEXT ( 'NONE', 'WORKASPACE' ) );
#2 =( NAMED_UNIT ( * ) PLANE_ANGLE_UNIT ( ) SI_UNIT ( $, .RADIAN. ) );
#3 = EDGE_CURVE ( 'NONE', #14, #14, #110, .T. ) ;
#4 =( LENGTH_UNIT ( ) NAMED_UNIT ( * ) SI_UNIT ( .MILLI., .METRE. ) );
#5 = FILL_AREA_STYLE ('',( #144 ) ) ;
#6 = DIRECTION ( 'NONE',  ( 0.0000000000000000000, 0.0000000000000000000, -1.000000000000000000 ) ) ;
#7 = EDGE_LOOP ( 'NONE', ( #172 ) ) ;
#8 = MECHANICAL_DESIGN_GEOMETRIC_PRESENTATION_REPRESENTATION (  '', ( #53 ), #212 ) ;
#9 = PRODUCT_DEFINITION_CONTEXT ( 'detailed design', #170, 'design' ) ;
#10 = PRESENTATION_LAYER_ASSIGNMENT (  '', '', ( #200 ) ) ;
#11 = DIRECTION ( 'NONE',  ( 0.0000000000000000000, 0.0000000000000000000, -1.000000000000000000 ) ) ;
#12 = MECHANICAL_DESIGN_GEOMETRIC_PRESENTATION_REPRESENTATION (  '', ( #44 ), #1 ) ;
#13 = EDGE_LOOP ( 'NONE', ( #38 ) ) ;
#14 = VERTEX_POINT ( 'NONE', #129 ) ;
#15 = CIRCLE ( 'NONE', #88, 4.600000000000006750 ) ;
#16 = EDGE_CURVE ( 'NONE', #69, #69, #162, .T. ) ;
#17 = FACE_OUTER_BOUND ( 'NONE', #13, .T. ) ;
#18 = PRESENTATION_STYLE_ASSIGNMENT (( #164 ) ) ;
#19 = ORIENTED_EDGE ( 'NONE', *, *, #81, .T. ) ;
#20 = PRODUCT ( '03-1698', '03-1698', '', ( #79 ) ) ;
#21 = PRESENTATION_LAYER_ASSIGNMENT (  '', '', ( #53 ) ) ;
#22 = SURFACE_STYLE_USAGE ( .BOTH. , #140 ) ;
#23 = PLANE ( 'NONE',  #60 ) ;
#24 = COLOUR_RGB ( '',0.7921568627450980005, 0.8196078431372548767, 0.9333333333333333481 ) ;
#25 = VERTEX_POINT ( 'NONE', #48 ) ;
#26 = AXIS2_PLACEMENT_3D ( 'NONE', #209, #192, #11 ) ;
#27 = CONICAL_SURFACE ( 'NONE', #75, 2414.213562373073728, 1.178097245096169310 ) ;
#28 = DIRECTION ( 'NONE',  ( -1.000000000000000000, -0.0000000000000000000, -0.0000000000000000000 ) ) ;
#29 = SURFACE_SIDE_STYLE ('',( #64 ) ) ;
#30 = CARTESIAN_POINT ( 'NONE',  ( 0.0000000000000000000, 0.0000000000000000000, 0.0000000000000000000 ) ) ;
#31 = ORIENTED_EDGE ( 'NONE', *, *, #3, .F. ) ;
#32 = DIRECTION ( 'NONE',  ( 0.0000000000000000000, 0.0000000000000000000, 1.000000000000000000 ) ) ;
#33 = PRESENTATION_LAYER_ASSIGNMENT (  '', '', ( #44 ) ) ;
#34 = UNCERTAINTY_MEASURE_WITH_UNIT (LENGTH_MEASURE( 1.000000000000000082E-05 ), #103, 'distance_accuracy_value', 'NONE');
#35 = COLOUR_RGB ( '',1.000000000000000000, 1.000000000000000000, 0.0000000000000000000 ) ;
#36 = DIRECTION ( 'NONE',  ( 0.0000000000000000000, 0.0000000000000000000, -1.000000000000000000 ) ) ;
#37 = AXIS2_PLACEMENT_3D ( 'NONE', #86, #131, #6 ) ;
#38 = ORIENTED_EDGE ( 'NONE', *, *, #81, .F. ) ;
#39 = DIRECTION ( 'NONE',  ( 0.0000000000000000000, 0.0000000000000000000, -1.000000000000000000 ) ) ;
#40 = FACE_OUTER_BOUND ( 'NONE', #89, .T. ) ;
#41 =( GEOMETRIC_REPRESENTATION_CONTEXT ( 3 ) GLOBAL_UNCERTAINTY_ASSIGNED_CONTEXT ( ( #97 ) ) GLOBAL_UNIT_ASSIGNED_CONTEXT ( ( #92, #181, #76 ) ) REPRESENTATION_CONTEXT ( 'NONE', 'WORKASPACE' ) );
#42 = ADVANCED_FACE ( 'NONE', ( #148 ), #23, .T. ) ;
#43 = ORIENTED_EDGE ( 'NONE', *, *, #16, .T. ) ;
#44 = STYLED_ITEM ( 'NONE', ( #146 ), #67 ) ;
#45 = SURFACE_STYLE_FILL_AREA ( #47 ) ;
#46 = CARTESIAN_POINT ( 'NONE',  ( 44.00000000000000000, 0.0000000000000000000, 0.0000000000000000000 ) ) ;
#47 = FILL_AREA_STYLE ('',( #151 ) ) ;
#48 = CARTESIAN_POINT ( 'NONE',  ( 123.0946176130837415, 0.0000000000000000000, 4.600000000000014744 ) ) ;
#49 = DIRECTION ( 'NONE',  ( 0.0000000000000000000, 0.0000000000000000000, 1.000000000000000000 ) ) ;
#50 = FACE_OUTER_BOUND ( 'NONE', #138, .T. ) ;
#51 = FILL_AREA_STYLE_COLOUR ( '', #72 ) ;
#52 = CARTESIAN_POINT ( 'NONE',  ( 123.0946176130837415, 0.0000000000000000000, 0.0000000000000000000 ) ) ;
#53 = STYLED_ITEM ( 'NONE', ( #168 ), #133 ) ;
#54 = CARTESIAN_POINT ( 'NONE',  ( 0.9199999999999675104, 0.0000000000000000000, 0.0000000000000000000 ) ) ;
#55 = DIRECTION ( 'NONE',  ( 1.000000000000000000, 0.0000000000000000000, 0.0000000000000000000 ) ) ;
#56 = CLOSED_SHELL ( 'NONE', ( #183, #135, #59 ) ) ;
#57 = SURFACE_STYLE_FILL_AREA ( #205 ) ;
#58 = UNCERTAINTY_MEASURE_WITH_UNIT (LENGTH_MEASURE( 1.000000000000000082E-05 ), #173, 'distance_accuracy_value', 'NONE');
#59 = ADVANCED_FACE ( 'NONE', ( #210 ), #27, .T. ) ;
#60 = AXIS2_PLACEMENT_3D ( 'NONE', #46, #118, #36 ) ;
#61 = APPLICATION_PROTOCOL_DEFINITION ( 'draft international standard', 'automotive_design', 1998, #170 ) ;
#62 = APPLICATION_CONTEXT ( 'automotive_design' ) ;
#63 = DIRECTION ( 'NONE',  ( -1.000000000000000000, -0.0000000000000000000, -0.0000000000000000000 ) ) ;
#64 = SURFACE_STYLE_FILL_AREA ( #143 ) ;
#65 = DIRECTION ( 'NONE',  ( 1.000000000000000000, 0.0000000000000000000, 0.0000000000000000000 ) ) ;
#66 = DIRECTION ( 'NONE',  ( 0.0000000000000000000, 0.0000000000000000000, 1.000000000000000000 ) ) ;
#67 = ADVANCED_BREP_SHAPE_REPRESENTATION ( '03-1698', ( #161, #133, #185 ), #159 ) ;
#68 =( NAMED_UNIT ( * ) PLANE_ANGLE_UNIT ( ) SI_UNIT ( $, .RADIAN. ) );
#69 = VERTEX_POINT ( 'NONE', #201 ) ;
#70 = AXIS2_PLACEMENT_3D ( 'NONE', #142, #28, #49 ) ;
#71 = ADVANCED_FACE ( 'NONE', ( #50, #203 ), #102, .T. ) ;
#72 = COLOUR_RGB ( '',0.7921568627450980005, 0.8196078431372548767, 0.9333333333333333481 ) ;
#73 = EDGE_LOOP ( 'NONE', ( #176 ) ) ;
#74 = CARTESIAN_POINT ( 'NONE',  ( -875.0000000000000000, 0.0000000000000000000, 0.0000000000000000000 ) ) ;
#75 = AXIS2_PLACEMENT_3D ( 'NONE', #74, #107, #167 ) ;
#76 =( NAMED_UNIT ( * ) SI_UNIT ( $, .STERADIAN. ) SOLID_ANGLE_UNIT ( ) );
#77 = SURFACE_STYLE_FILL_AREA ( #5 ) ;
#78 = AXIS2_PLACEMENT_3D ( 'NONE', #171, #63, #153 ) ;
#79 = PRODUCT_CONTEXT ( 'NONE', #62, 'mechanical' ) ;
#80 = APPLICATION_PROTOCOL_DEFINITION ( 'draft international standard', 'automotive_design', 1998, #62 ) ;
#81 = EDGE_CURVE ( 'NONE', #93, #93, #15, .T. ) ;
#82 = CARTESIAN_POINT ( 'NONE',  ( 44.00000000000000000, 0.0000000000000000000, -4.600000000000006750 ) ) ;
#83 = CARTESIAN_POINT ( 'NONE',  ( 44.00000000000000000, 0.0000000000000000000, 0.0000000000000000000 ) ) ;
#84 =( NAMED_UNIT ( * ) SI_UNIT ( $, .STERADIAN. ) SOLID_ANGLE_UNIT ( ) );
#85 = ORIENTED_EDGE ( 'NONE', *, *, #208, .T. ) ;
#86 = CARTESIAN_POINT ( 'NONE',  ( -2.816687638038912056E-16, 4.599999999999999645, 0.0000000000000000000 ) ) ;
#87 = DIRECTION ( 'NONE',  ( 1.000000000000000000, 0.0000000000000000000, 0.0000000000000000000 ) ) ;
#88 = AXIS2_PLACEMENT_3D ( 'NONE', #190, #87, #175 ) ;
#89 = EDGE_LOOP ( 'NONE', ( #43 ) ) ;
#90 = COLOUR_RGB ( '',1.000000000000000000, 1.000000000000000000, 0.0000000000000000000 ) ;
#91 = AXIS2_PLACEMENT_3D ( 'NONE', #83, #65, #154 ) ;
#92 =( LENGTH_UNIT ( ) NAMED_UNIT ( * ) SI_UNIT ( .MILLI., .METRE. ) );
#93 = VERTEX_POINT ( 'NONE', #82 ) ;
#94 = DIRECTION ( 'NONE',  ( 0.0000000000000000000, 0.0000000000000000000, -1.000000000000000000 ) ) ;
#95 = AXIS2_PLACEMENT_3D ( 'NONE', #54, #55, #39 ) ;
#96 = PLANE ( 'NONE',  #37 ) ;
#97 = UNCERTAINTY_MEASURE_WITH_UNIT (LENGTH_MEASURE( 1.000000000000000082E-05 ), #92, 'distance_accuracy_value', 'NONE');
#98 = SHAPE_DEFINITION_REPRESENTATION ( #113, #67 ) ;
#99 = DIRECTION ( 'NONE',  ( 0.0000000000000000000, 0.0000000000000000000, 1.000000000000000000 ) ) ;
#100 = AXIS2_PLACEMENT_3D ( 'NONE', #52, #145, #32 ) ;
#101 =( NAMED_UNIT ( * ) SI_UNIT ( $, .STERADIAN. ) SOLID_ANGLE_UNIT ( ) );
#102 = CONICAL_SURFACE ( 'NONE', #195, 3.680000000000030358, 0.7853981633974530530 ) ;
#103 =( LENGTH_UNIT ( ) NAMED_UNIT ( * ) SI_UNIT ( .MILLI., .METRE. ) );
#104 = SURFACE_SIDE_STYLE ('',( #57 ) ) ;
#105 = DIRECTION ( 'NONE',  ( -1.000000000000000000, -0.0000000000000000000, -0.0000000000000000000 ) ) ;
#106 =( GEOMETRIC_REPRESENTATION_CONTEXT ( 3 ) GLOBAL_UNCERTAINTY_ASSIGNED_CONTEXT ( ( #179 ) ) GLOBAL_UNIT_ASSIGNED_CONTEXT ( ( #4, #114, #202 ) ) REPRESENTATION_CONTEXT ( 'NONE', 'WORKASPACE' ) );
#107 = DIRECTION ( 'NONE',  ( -1.000000000000000000, -0.0000000000000000000, -0.0000000000000000000 ) ) ;
#108 = EDGE_CURVE ( 'NONE', #25, #25, #178, .T. ) ;
#109 = ORIENTED_EDGE ( 'NONE', *, *, #3, .T. ) ;
#110 = CIRCLE ( 'NONE', #95, 4.600000000000006750 ) ;
#111 = MECHANICAL_DESIGN_GEOMETRIC_PRESENTATION_REPRESENTATION (  '', ( #132 ), #106 ) ;
#112 =( NAMED_UNIT ( * ) SI_UNIT ( $, .STERADIAN. ) SOLID_ANGLE_UNIT ( ) );
#113 = PRODUCT_DEFINITION_SHAPE ( 'NONE', 'NONE',  #174 ) ;
#114 =( NAMED_UNIT ( * ) PLANE_ANGLE_UNIT ( ) SI_UNIT ( $, .RADIAN. ) );
#115 = SURFACE_SIDE_STYLE ('',( #77 ) ) ;
#116 = EDGE_LOOP ( 'NONE', ( #198 ) ) ;
#117 = FILL_AREA_STYLE_COLOUR ( '', #35 ) ;
#118 = DIRECTION ( 'NONE',  ( 1.000000000000000000, 0.0000000000000000000, 0.0000000000000000000 ) ) ;
#119 = ORIENTED_EDGE ( 'NONE', *, *, #108, .F. ) ;
#120 = EDGE_LOOP ( 'NONE', ( #85 ) ) ;
#121 = PRESENTATION_LAYER_ASSIGNMENT (  '', '', ( #132 ) ) ;
#122 = ADVANCED_FACE ( 'NONE', ( #165 ), #96, .F. ) ;
#123 = FACE_OUTER_BOUND ( 'NONE', #160, .T. ) ;
#124 = SURFACE_STYLE_FILL_AREA ( #206 ) ;
#125 = UNCERTAINTY_MEASURE_WITH_UNIT (LENGTH_MEASURE( 1.000000000000000082E-05 ), #187, 'distance_accuracy_value', 'NONE');
#126 =( LENGTH_UNIT ( ) NAMED_UNIT ( * ) SI_UNIT ( .MILLI., .METRE. ) );
#127 = FACE_OUTER_BOUND ( 'NONE', #73, .T. ) ;
#128 = CARTESIAN_POINT ( 'NONE',  ( 0.0000000000000000000, 0.0000000000000000000, 0.0000000000000000000 ) ) ;
#129 = CARTESIAN_POINT ( 'NONE',  ( 0.9199999999999675104, 0.0000000000000000000, -4.600000000000006750 ) ) ;
#130 = SURFACE_STYLE_USAGE ( .BOTH. , #29 ) ;
#131 = DIRECTION ( 'NONE',  ( 1.000000000000000000, 0.0000000000000000000, 0.0000000000000000000 ) ) ;
#132 = STYLED_ITEM ( 'NONE', ( #137 ), #161 ) ;
#133 = MANIFOLD_SOLID_BREP ( 'ºÐÇÒ2[2]', #56 ) ;
#134 = FACE_OUTER_BOUND ( 'NONE', #7, .T. ) ;
#135 = ADVANCED_FACE ( 'NONE', ( #40, #127 ), #156, .T. ) ;
#136 = CYLINDRICAL_SURFACE ( 'NONE', #70, 4.600000000000006750 ) ;
#137 = PRESENTATION_STYLE_ASSIGNMENT (( #130 ) ) ;
#138 = EDGE_LOOP ( 'NONE', ( #31 ) ) ;
#139 = AXIS2_PLACEMENT_3D ( 'NONE', #30, #105, #66 ) ;
#140 = SURFACE_SIDE_STYLE ('',( #45 ) ) ;
#141 = CARTESIAN_POINT ( 'NONE',  ( -2.816687638038912056E-16, 0.0000000000000000000, -3.680000000000030358 ) ) ;
#142 = CARTESIAN_POINT ( 'NONE',  ( 0.0000000000000000000, 0.0000000000000000000, 0.0000000000000000000 ) ) ;
#143 = FILL_AREA_STYLE ('',( #51 ) ) ;
#144 = FILL_AREA_STYLE_COLOUR ( '', #90 ) ;
#145 = DIRECTION ( 'NONE',  ( -1.000000000000000000, -0.0000000000000000000, -0.0000000000000000000 ) ) ;
#146 = PRESENTATION_STYLE_ASSIGNMENT (( #22 ) ) ;
#147 = SURFACE_SIDE_STYLE ('',( #124 ) ) ;
#148 = FACE_OUTER_BOUND ( 'NONE', #184, .T. ) ;
#149 = PRESENTATION_STYLE_ASSIGNMENT (( #204 ) ) ;
#150 = PRODUCT_RELATED_PRODUCT_CATEGORY ( 'part', '', ( #20 ) ) ;
#151 = FILL_AREA_STYLE_COLOUR ( '', #24 ) ;
#152 = CLOSED_SHELL ( 'NONE', ( #193, #122, #71, #42 ) ) ;
#153 = DIRECTION ( 'NONE',  ( 0.0000000000000000000, 0.0000000000000000000, -1.000000000000000000 ) ) ;
#154 = DIRECTION ( 'NONE',  ( 0.0000000000000000000, 0.0000000000000000000, -1.000000000000000000 ) ) ;
#155 = PLANE ( 'NONE',  #91 ) ;
#156 = CYLINDRICAL_SURFACE ( 'NONE', #139, 4.600000000000006750 ) ;
#157 =( NAMED_UNIT ( * ) SI_UNIT ( $, .STERADIAN. ) SOLID_ANGLE_UNIT ( ) );
#158 = FILL_AREA_STYLE_COLOUR ( '', #166 ) ;
#159 =( GEOMETRIC_REPRESENTATION_CONTEXT ( 3 ) GLOBAL_UNCERTAINTY_ASSIGNED_CONTEXT ( ( #125 ) ) GLOBAL_UNIT_ASSIGNED_CONTEXT ( ( #187, #199, #101 ) ) REPRESENTATION_CONTEXT ( 'NONE', 'WORKASPACE' ) );
#160 = EDGE_LOOP ( 'NONE', ( #109 ) ) ;
#161 = MANIFOLD_SOLID_BREP ( 'ºÐÇÒ2[1]', #152 ) ;
#162 = CIRCLE ( 'NONE', #26, 4.600000000000006750 ) ;
#163 = PRODUCT_DEFINITION_FORMATION_WITH_SPECIFIED_SOURCE ( 'ANY', '', #20, .NOT_KNOWN. ) ;
#164 = SURFACE_STYLE_USAGE ( .BOTH. , #147 ) ;
#165 = FACE_OUTER_BOUND ( 'NONE', #120, .T. ) ;
#166 = COLOUR_RGB ( '',0.7921568627450980005, 0.8196078431372548767, 0.9333333333333333481 ) ;
#167 = DIRECTION ( 'NONE',  ( 0.0000000000000000000, 0.0000000000000000000, 1.000000000000000000 ) ) ;
#168 = PRESENTATION_STYLE_ASSIGNMENT (( #189 ) ) ;
#169 =( GEOMETRIC_REPRESENTATION_CONTEXT ( 3 ) GLOBAL_UNCERTAINTY_ASSIGNED_CONTEXT ( ( #34 ) ) GLOBAL_UNIT_ASSIGNED_CONTEXT ( ( #103, #188, #84 ) ) REPRESENTATION_CONTEXT ( 'NONE', 'WORKASPACE' ) );
#170 = APPLICATION_CONTEXT ( 'automotive_design' ) ;
#171 = CARTESIAN_POINT ( 'NONE',  ( -2.816687638038912056E-16, 0.0000000000000000000, 0.0000000000000000000 ) ) ;
#172 = ORIENTED_EDGE ( 'NONE', *, *, #16, .F. ) ;
#173 =( LENGTH_UNIT ( ) NAMED_UNIT ( * ) SI_UNIT ( .MILLI., .METRE. ) );
#174 = PRODUCT_DEFINITION ( 'UNKNOWN', '', #163, #9 ) ;
#175 = DIRECTION ( 'NONE',  ( 0.0000000000000000000, 0.0000000000000000000, -1.000000000000000000 ) ) ;
#176 = ORIENTED_EDGE ( 'NONE', *, *, #108, .T. ) ;
#177 = CIRCLE ( 'NONE', #78, 3.680000000000030358 ) ;
#178 = CIRCLE ( 'NONE', #100, 4.600000000000014744 ) ;
#179 = UNCERTAINTY_MEASURE_WITH_UNIT (LENGTH_MEASURE( 1.000000000000000082E-05 ), #4, 'distance_accuracy_value', 'NONE');
#180 = MECHANICAL_DESIGN_GEOMETRIC_PRESENTATION_REPRESENTATION (  '', ( #196 ), #169 ) ;
#181 =( NAMED_UNIT ( * ) PLANE_ANGLE_UNIT ( ) SI_UNIT ( $, .RADIAN. ) );
#182 = CARTESIAN_POINT ( 'NONE',  ( -2.816687638038912056E-16, 0.0000000000000000000, 0.0000000000000000000 ) ) ;
#183 = ADVANCED_FACE ( 'NONE', ( #134 ), #155, .F. ) ;
#184 = EDGE_LOOP ( 'NONE', ( #19 ) ) ;
#185 = AXIS2_PLACEMENT_3D ( 'NONE', #128, #99, #186 ) ;
#186 = DIRECTION ( 'NONE',  ( 1.000000000000000000, 0.0000000000000000000, 0.0000000000000000000 ) ) ;
#187 =( LENGTH_UNIT ( ) NAMED_UNIT ( * ) SI_UNIT ( .MILLI., .METRE. ) );
#188 =( NAMED_UNIT ( * ) PLANE_ANGLE_UNIT ( ) SI_UNIT ( $, .RADIAN. ) );
#189 = SURFACE_STYLE_USAGE ( .BOTH. , #104 ) ;
#190 = CARTESIAN_POINT ( 'NONE',  ( 44.00000000000000000, 0.0000000000000000000, 0.0000000000000000000 ) ) ;
#191 = PRESENTATION_LAYER_ASSIGNMENT (  '', '', ( #196 ) ) ;
#192 = DIRECTION ( 'NONE',  ( 1.000000000000000000, 0.0000000000000000000, 0.0000000000000000000 ) ) ;
#193 = ADVANCED_FACE ( 'NONE', ( #123, #17 ), #136, .T. ) ;
#194 = DIRECTION ( 'NONE',  ( 1.000000000000000000, 0.0000000000000000000, 0.0000000000000000000 ) ) ;
#195 = AXIS2_PLACEMENT_3D ( 'NONE', #182, #194, #94 ) ;
#196 = STYLED_ITEM ( 'NONE', ( #149 ), #135 ) ;
#197 = VERTEX_POINT ( 'NONE', #141 ) ;
#198 = ORIENTED_EDGE ( 'NONE', *, *, #208, .F. ) ;
#199 =( NAMED_UNIT ( * ) PLANE_ANGLE_UNIT ( ) SI_UNIT ( $, .RADIAN. ) );
#200 = STYLED_ITEM ( 'NONE', ( #18 ), #59 ) ;
#201 = CARTESIAN_POINT ( 'NONE',  ( 44.00000000000000000, 0.0000000000000000000, -4.600000000000006750 ) ) ;
#202 =( NAMED_UNIT ( * ) SI_UNIT ( $, .STERADIAN. ) SOLID_ANGLE_UNIT ( ) );
#203 = FACE_BOUND ( 'NONE', #116, .T. ) ;
#204 = SURFACE_STYLE_USAGE ( .BOTH. , #115 ) ;
#205 = FILL_AREA_STYLE ('',( #158 ) ) ;
#206 = FILL_AREA_STYLE ('',( #117 ) ) ;
#207 = EDGE_LOOP ( 'NONE', ( #119 ) ) ;
#208 = EDGE_CURVE ( 'NONE', #197, #197, #177, .T. ) ;
#209 = CARTESIAN_POINT ( 'NONE',  ( 44.00000000000000000, 0.0000000000000000000, 0.0000000000000000000 ) ) ;
#210 = FACE_OUTER_BOUND ( 'NONE', #207, .T. ) ;
#211 = UNCERTAINTY_MEASURE_WITH_UNIT (LENGTH_MEASURE( 1.000000000000000082E-05 ), #126, 'distance_accuracy_value', 'NONE');
#212 =( GEOMETRIC_REPRESENTATION_CONTEXT ( 3 ) GLOBAL_UNCERTAINTY_ASSIGNED_CONTEXT ( ( #58 ) ) GLOBAL_UNIT_ASSIGNED_CONTEXT ( ( #173, #68, #157 ) ) REPRESENTATION_CONTEXT ( 'NONE', 'WORKASPACE' ) );
#213 = MECHANICAL_DESIGN_GEOMETRIC_PRESENTATION_REPRESENTATION (  '', ( #200 ), #41 ) ;
ENDSEC;
END-ISO-10303-21;
