ISO-10303-21;
HEADER;
FILE_DESCRIPTION (( 'STEP AP214' ),
    '1' );
FILE_NAME ('03-1702.STEP',
    '2021-10-01T05:44:05',
    ( 'USER' ),
    ( '' ),
    'SwSTEP 2.0',
    'SolidWorks 2018',
    '' );
FILE_SCHEMA (( 'AUTOMOTIVE_DESIGN' ));
ENDSEC;

DATA;
#1 = CARTESIAN_POINT ( 'NONE',  ( -2.939152317953647106E-16, 4.799999999999999822, 0.0000000000000000000 ) ) ;
#2 = UNCERTAINTY_MEASURE_WITH_UNIT (LENGTH_MEASURE( 1.000000000000000082E-05 ), #32, 'distance_accuracy_value', 'NONE');
#3 = FACE_OUTER_BOUND ( 'NONE', #197, .T. ) ;
#4 = EDGE_CURVE ( 'NONE', #97, #97, #129, .T. ) ;
#5 =( GEOMETRIC_REPRESENTATION_CONTEXT ( 3 ) GLOBAL_UNCERTAINTY_ASSIGNED_CONTEXT ( ( #147 ) ) GLOBAL_UNIT_ASSIGNED_CONTEXT ( ( #18, #184, #122 ) ) REPRESENTATION_CONTEXT ( 'NONE', 'WORKASPACE' ) );
#6 = APPLICATION_CONTEXT ( 'automotive_design' ) ;
#7 = MECHANICAL_DESIGN_GEOMETRIC_PRESENTATION_REPRESENTATION (  '', ( #201 ), #63 ) ;
#8 = ORIENTED_EDGE ( 'NONE', *, *, #105, .T. ) ;
#9 = SURFACE_SIDE_STYLE ('',( #80 ) ) ;
#10 =( NAMED_UNIT ( * ) SI_UNIT ( $, .STERADIAN. ) SOLID_ANGLE_UNIT ( ) );
#11 =( GEOMETRIC_REPRESENTATION_CONTEXT ( 3 ) GLOBAL_UNCERTAINTY_ASSIGNED_CONTEXT ( ( #55 ) ) GLOBAL_UNIT_ASSIGNED_CONTEXT ( ( #38, #131, #24 ) ) REPRESENTATION_CONTEXT ( 'NONE', 'WORKASPACE' ) );
#12 = FILL_AREA_STYLE ('',( #174 ) ) ;
#13 = MANIFOLD_SOLID_BREP ( 'ºÐÇÒ2[1]', #196 ) ;
#14 = AXIS2_PLACEMENT_3D ( 'NONE', #153, #189, #171 ) ;
#15 = PRODUCT_RELATED_PRODUCT_CATEGORY ( 'part', '', ( #104 ) ) ;
#16 = ADVANCED_FACE ( 'NONE', ( #107 ), #156, .F. ) ;
#17 = PLANE ( 'NONE',  #195 ) ;
#18 =( LENGTH_UNIT ( ) NAMED_UNIT ( * ) SI_UNIT ( .MILLI., .METRE. ) );
#19 = CARTESIAN_POINT ( 'NONE',  ( 0.0000000000000000000, 0.0000000000000000000, 0.0000000000000000000 ) ) ;
#20 = PRESENTATION_LAYER_ASSIGNMENT (  '', '', ( #67 ) ) ;
#21 = CLOSED_SHELL ( 'NONE', ( #179, #145, #85 ) ) ;
#22 = MANIFOLD_SOLID_BREP ( 'ºÐÇÒ2[2]', #21 ) ;
#23 = SURFACE_STYLE_FILL_AREA ( #151 ) ;
#24 =( NAMED_UNIT ( * ) SI_UNIT ( $, .STERADIAN. ) SOLID_ANGLE_UNIT ( ) );
#25 = FILL_AREA_STYLE_COLOUR ( '', #58 ) ;
#26 = PRESENTATION_STYLE_ASSIGNMENT (( #148 ) ) ;
#27 =( NAMED_UNIT ( * ) SI_UNIT ( $, .STERADIAN. ) SOLID_ANGLE_UNIT ( ) );
#28 = FILL_AREA_STYLE ('',( #61 ) ) ;
#29 = DIRECTION ( 'NONE',  ( 1.000000000000000000, 0.0000000000000000000, 0.0000000000000000000 ) ) ;
#30 = STYLED_ITEM ( 'NONE', ( #84 ), #13 ) ;
#31 = AXIS2_PLACEMENT_3D ( 'NONE', #198, #106, #163 ) ;
#32 =( LENGTH_UNIT ( ) NAMED_UNIT ( * ) SI_UNIT ( .MILLI., .METRE. ) );
#33 = AXIS2_PLACEMENT_3D ( 'NONE', #185, #100, #205 ) ;
#34 = FACE_OUTER_BOUND ( 'NONE', #188, .T. ) ;
#35 = EDGE_LOOP ( 'NONE', ( #164 ) ) ;
#36 = ADVANCED_FACE ( 'NONE', ( #200, #99 ), #41, .T. ) ;
#37 = ADVANCED_BREP_SHAPE_REPRESENTATION ( '03-1702', ( #13, #22, #31 ), #49 ) ;
#38 =( LENGTH_UNIT ( ) NAMED_UNIT ( * ) SI_UNIT ( .MILLI., .METRE. ) );
#39 = DIRECTION ( 'NONE',  ( 0.0000000000000000000, 0.0000000000000000000, -1.000000000000000000 ) ) ;
#40 = AXIS2_PLACEMENT_3D ( 'NONE', #118, #83, #47 ) ;
#41 = CONICAL_SURFACE ( 'NONE', #204, 3.839999999999996305, 0.7853981633974460586 ) ;
#42 = COLOUR_RGB ( '',0.7921568627450980005, 0.8196078431372548767, 0.9333333333333333481 ) ;
#43 = DIRECTION ( 'NONE',  ( 0.0000000000000000000, 0.0000000000000000000, -1.000000000000000000 ) ) ;
#44 = VERTEX_POINT ( 'NONE', #137 ) ;
#45 = DIRECTION ( 'NONE',  ( 0.0000000000000000000, 0.0000000000000000000, -1.000000000000000000 ) ) ;
#46 = SURFACE_SIDE_STYLE ('',( #191 ) ) ;
#47 = DIRECTION ( 'NONE',  ( 0.0000000000000000000, 0.0000000000000000000, -1.000000000000000000 ) ) ;
#48 = CIRCLE ( 'NONE', #165, 4.800000000000007816 ) ;
#49 =( GEOMETRIC_REPRESENTATION_CONTEXT ( 3 ) GLOBAL_UNCERTAINTY_ASSIGNED_CONTEXT ( ( #2 ) ) GLOBAL_UNIT_ASSIGNED_CONTEXT ( ( #32, #103, #27 ) ) REPRESENTATION_CONTEXT ( 'NONE', 'WORKASPACE' ) );
#50 = SURFACE_STYLE_USAGE ( .BOTH. , #127 ) ;
#51 = STYLED_ITEM ( 'NONE', ( #96 ), #22 ) ;
#52 = DIRECTION ( 'NONE',  ( 0.0000000000000000000, 0.0000000000000000000, 1.000000000000000000 ) ) ;
#53 = MECHANICAL_DESIGN_GEOMETRIC_PRESENTATION_REPRESENTATION (  '', ( #51 ), #5 ) ;
#54 = DIRECTION ( 'NONE',  ( 0.0000000000000000000, 0.0000000000000000000, 1.000000000000000000 ) ) ;
#55 = UNCERTAINTY_MEASURE_WITH_UNIT (LENGTH_MEASURE( 1.000000000000000082E-05 ), #38, 'distance_accuracy_value', 'NONE');
#56 = DIRECTION ( 'NONE',  ( -1.000000000000000000, -0.0000000000000000000, -0.0000000000000000000 ) ) ;
#57 = PRODUCT_DEFINITION ( 'UNKNOWN', '', #88, #182 ) ;
#58 = COLOUR_RGB ( '',0.7921568627450980005, 0.8196078431372548767, 0.9333333333333333481 ) ;
#59 = EDGE_LOOP ( 'NONE', ( #133 ) ) ;
#60 = DIRECTION ( 'NONE',  ( 1.000000000000000000, 0.0000000000000000000, 0.0000000000000000000 ) ) ;
#61 = FILL_AREA_STYLE_COLOUR ( '', #110 ) ;
#62 = CARTESIAN_POINT ( 'NONE',  ( 0.9600000000000152856, 0.0000000000000000000, -4.800000000000007816 ) ) ;
#63 =( GEOMETRIC_REPRESENTATION_CONTEXT ( 3 ) GLOBAL_UNCERTAINTY_ASSIGNED_CONTEXT ( ( #132 ) ) GLOBAL_UNIT_ASSIGNED_CONTEXT ( ( #126, #135, #10 ) ) REPRESENTATION_CONTEXT ( 'NONE', 'WORKASPACE' ) );
#64 = CIRCLE ( 'NONE', #154, 3.839999999999996305 ) ;
#65 = EDGE_LOOP ( 'NONE', ( #8 ) ) ;
#66 = PRODUCT_DEFINITION_SHAPE ( 'NONE', 'NONE',  #57 ) ;
#67 = STYLED_ITEM ( 'NONE', ( #98 ), #85 ) ;
#68 =( NAMED_UNIT ( * ) PLANE_ANGLE_UNIT ( ) SI_UNIT ( $, .RADIAN. ) );
#69 = COLOUR_RGB ( '',1.000000000000000000, 1.000000000000000000, 0.0000000000000000000 ) ;
#70 = VERTEX_POINT ( 'NONE', #87 ) ;
#71 = AXIS2_PLACEMENT_3D ( 'NONE', #19, #203, #149 ) ;
#72 = CARTESIAN_POINT ( 'NONE',  ( 46.00000000000001421, 0.0000000000000000000, -4.800000000000007816 ) ) ;
#73 = STYLED_ITEM ( 'NONE', ( #210 ), #145 ) ;
#74 = ORIENTED_EDGE ( 'NONE', *, *, #4, .T. ) ;
#75 = APPLICATION_PROTOCOL_DEFINITION ( 'draft international standard', 'automotive_design', 1998, #6 ) ;
#76 = UNCERTAINTY_MEASURE_WITH_UNIT (LENGTH_MEASURE( 1.000000000000000082E-05 ), #91, 'distance_accuracy_value', 'NONE');
#77 = EDGE_LOOP ( 'NONE', ( #208 ) ) ;
#78 = MECHANICAL_DESIGN_GEOMETRIC_PRESENTATION_REPRESENTATION (  '', ( #67 ), #11 ) ;
#79 = ORIENTED_EDGE ( 'NONE', *, *, #4, .F. ) ;
#80 = SURFACE_STYLE_FILL_AREA ( #28 ) ;
#81 = FILL_AREA_STYLE_COLOUR ( '', #115 ) ;
#82 = CARTESIAN_POINT ( 'NONE',  ( 46.00000000000001421, 0.0000000000000000000, -4.800000000000007816 ) ) ;
#83 = DIRECTION ( 'NONE',  ( 1.000000000000000000, 0.0000000000000000000, 0.0000000000000000000 ) ) ;
#84 = PRESENTATION_STYLE_ASSIGNMENT (( #207 ) ) ;
#85 = ADVANCED_FACE ( 'NONE', ( #158 ), #108, .T. ) ;
#86 = VERTEX_POINT ( 'NONE', #72 ) ;
#87 = CARTESIAN_POINT ( 'NONE',  ( -2.939152317953647106E-16, 0.0000000000000000000, -3.839999999999996305 ) ) ;
#88 = PRODUCT_DEFINITION_FORMATION_WITH_SPECIFIED_SOURCE ( 'ANY', '', #104, .NOT_KNOWN. ) ;
#89 = FILL_AREA_STYLE_COLOUR ( '', #69 ) ;
#90 = SURFACE_STYLE_FILL_AREA ( #92 ) ;
#91 =( LENGTH_UNIT ( ) NAMED_UNIT ( * ) SI_UNIT ( .MILLI., .METRE. ) );
#92 = FILL_AREA_STYLE ('',( #89 ) ) ;
#93 = AXIS2_PLACEMENT_3D ( 'NONE', #1, #168, #134 ) ;
#94 = APPLICATION_CONTEXT ( 'automotive_design' ) ;
#95 = ADVANCED_FACE ( 'NONE', ( #143, #152 ), #139, .T. ) ;
#96 = PRESENTATION_STYLE_ASSIGNMENT (( #157 ) ) ;
#97 = VERTEX_POINT ( 'NONE', #82 ) ;
#98 = PRESENTATION_STYLE_ASSIGNMENT (( #150 ) ) ;
#99 = FACE_BOUND ( 'NONE', #116, .T. ) ;
#100 = DIRECTION ( 'NONE',  ( -1.000000000000000000, -0.0000000000000000000, -0.0000000000000000000 ) ) ;
#101 = FACE_OUTER_BOUND ( 'NONE', #65, .T. ) ;
#102 = EDGE_LOOP ( 'NONE', ( #74 ) ) ;
#103 =( NAMED_UNIT ( * ) PLANE_ANGLE_UNIT ( ) SI_UNIT ( $, .RADIAN. ) );
#104 = PRODUCT ( '03-1702', '03-1702', '', ( #166 ) ) ;
#105 = EDGE_CURVE ( 'NONE', #86, #86, #192, .T. ) ;
#106 = DIRECTION ( 'NONE',  ( 0.0000000000000000000, 0.0000000000000000000, 1.000000000000000000 ) ) ;
#107 = FACE_OUTER_BOUND ( 'NONE', #59, .T. ) ;
#108 = CONICAL_SURFACE ( 'NONE', #33, 2414.213562373056902, 1.178097245096166867 ) ;
#109 = PRESENTATION_LAYER_ASSIGNMENT (  '', '', ( #51 ) ) ;
#110 = COLOUR_RGB ( '',0.7921568627450980005, 0.8196078431372548767, 0.9333333333333333481 ) ;
#111 = EDGE_LOOP ( 'NONE', ( #180 ) ) ;
#112 = CARTESIAN_POINT ( 'NONE',  ( 131.0117749006091117, 0.0000000000000000000, 0.0000000000000000000 ) ) ;
#113 = EDGE_CURVE ( 'NONE', #169, #169, #48, .T. ) ;
#114 = CARTESIAN_POINT ( 'NONE',  ( -2.939152317953647106E-16, 0.0000000000000000000, 0.0000000000000000000 ) ) ;
#115 = COLOUR_RGB ( '',1.000000000000000000, 1.000000000000000000, 0.0000000000000000000 ) ;
#116 = EDGE_LOOP ( 'NONE', ( #155 ) ) ;
#117 = ORIENTED_EDGE ( 'NONE', *, *, #136, .F. ) ;
#118 = CARTESIAN_POINT ( 'NONE',  ( 46.00000000000001421, 0.0000000000000000000, 0.0000000000000000000 ) ) ;
#119 = DIRECTION ( 'NONE',  ( -1.000000000000000000, -0.0000000000000000000, -0.0000000000000000000 ) ) ;
#120 = FACE_OUTER_BOUND ( 'NONE', #102, .T. ) ;
#121 = MECHANICAL_DESIGN_GEOMETRIC_PRESENTATION_REPRESENTATION (  '', ( #30 ), #141 ) ;
#122 =( NAMED_UNIT ( * ) SI_UNIT ( $, .STERADIAN. ) SOLID_ANGLE_UNIT ( ) );
#123 = CYLINDRICAL_SURFACE ( 'NONE', #206, 4.800000000000007816 ) ;
#124 = AXIS2_PLACEMENT_3D ( 'NONE', #112, #56, #52 ) ;
#125 = EDGE_CURVE ( 'NONE', #70, #70, #64, .T. ) ;
#126 =( LENGTH_UNIT ( ) NAMED_UNIT ( * ) SI_UNIT ( .MILLI., .METRE. ) );
#127 = SURFACE_SIDE_STYLE ('',( #159 ) ) ;
#128 = DIRECTION ( 'NONE',  ( -1.000000000000000000, -0.0000000000000000000, -0.0000000000000000000 ) ) ;
#129 = CIRCLE ( 'NONE', #14, 4.800000000000007816 ) ;
#130 = DIRECTION ( 'NONE',  ( 0.0000000000000000000, 0.0000000000000000000, -1.000000000000000000 ) ) ;
#131 =( NAMED_UNIT ( * ) PLANE_ANGLE_UNIT ( ) SI_UNIT ( $, .RADIAN. ) );
#132 = UNCERTAINTY_MEASURE_WITH_UNIT (LENGTH_MEASURE( 1.000000000000000082E-05 ), #126, 'distance_accuracy_value', 'NONE');
#133 = ORIENTED_EDGE ( 'NONE', *, *, #125, .T. ) ;
#134 = DIRECTION ( 'NONE',  ( 0.0000000000000000000, 0.0000000000000000000, -1.000000000000000000 ) ) ;
#135 =( NAMED_UNIT ( * ) PLANE_ANGLE_UNIT ( ) SI_UNIT ( $, .RADIAN. ) );
#136 = EDGE_CURVE ( 'NONE', #44, #44, #187, .T. ) ;
#137 = CARTESIAN_POINT ( 'NONE',  ( 131.0117749006091117, 0.0000000000000000000, 4.800000000000015810 ) ) ;
#138 = AXIS2_PLACEMENT_3D ( 'NONE', #170, #29, #45 ) ;
#139 = CYLINDRICAL_SURFACE ( 'NONE', #71, 4.800000000000007816 ) ;
#140 =( NAMED_UNIT ( * ) SI_UNIT ( $, .STERADIAN. ) SOLID_ANGLE_UNIT ( ) );
#141 =( GEOMETRIC_REPRESENTATION_CONTEXT ( 3 ) GLOBAL_UNCERTAINTY_ASSIGNED_CONTEXT ( ( #76 ) ) GLOBAL_UNIT_ASSIGNED_CONTEXT ( ( #91, #176, #172 ) ) REPRESENTATION_CONTEXT ( 'NONE', 'WORKASPACE' ) );
#142 = FILL_AREA_STYLE ('',( #81 ) ) ;
#143 = FACE_OUTER_BOUND ( 'NONE', #111, .T. ) ;
#144 = SURFACE_SIDE_STYLE ('',( #23 ) ) ;
#145 = ADVANCED_FACE ( 'NONE', ( #120, #34 ), #123, .T. ) ;
#146 = CARTESIAN_POINT ( 'NONE',  ( 0.9600000000000152856, 0.0000000000000000000, 0.0000000000000000000 ) ) ;
#147 = UNCERTAINTY_MEASURE_WITH_UNIT (LENGTH_MEASURE( 1.000000000000000082E-05 ), #18, 'distance_accuracy_value', 'NONE');
#148 = SURFACE_STYLE_USAGE ( .BOTH. , #144 ) ;
#149 = DIRECTION ( 'NONE',  ( 0.0000000000000000000, 0.0000000000000000000, 1.000000000000000000 ) ) ;
#150 = SURFACE_STYLE_USAGE ( .BOTH. , #167 ) ;
#151 = FILL_AREA_STYLE ('',( #25 ) ) ;
#152 = FACE_OUTER_BOUND ( 'NONE', #77, .T. ) ;
#153 = CARTESIAN_POINT ( 'NONE',  ( 46.00000000000001421, 0.0000000000000000000, 0.0000000000000000000 ) ) ;
#154 = AXIS2_PLACEMENT_3D ( 'NONE', #175, #119, #130 ) ;
#155 = ORIENTED_EDGE ( 'NONE', *, *, #125, .F. ) ;
#156 = PLANE ( 'NONE',  #93 ) ;
#157 = SURFACE_STYLE_USAGE ( .BOTH. , #46 ) ;
#158 = FACE_OUTER_BOUND ( 'NONE', #177, .T. ) ;
#159 = SURFACE_STYLE_FILL_AREA ( #142 ) ;
#160 =( LENGTH_UNIT ( ) NAMED_UNIT ( * ) SI_UNIT ( .MILLI., .METRE. ) );
#161 = MECHANICAL_DESIGN_GEOMETRIC_PRESENTATION_REPRESENTATION (  '', ( #73 ), #173 ) ;
#162 = ADVANCED_FACE ( 'NONE', ( #101 ), #17, .T. ) ;
#163 = DIRECTION ( 'NONE',  ( 1.000000000000000000, 0.0000000000000000000, 0.0000000000000000000 ) ) ;
#164 = ORIENTED_EDGE ( 'NONE', *, *, #113, .F. ) ;
#165 = AXIS2_PLACEMENT_3D ( 'NONE', #146, #194, #212 ) ;
#166 = PRODUCT_CONTEXT ( 'NONE', #6, 'mechanical' ) ;
#167 = SURFACE_SIDE_STYLE ('',( #90 ) ) ;
#168 = DIRECTION ( 'NONE',  ( 1.000000000000000000, 0.0000000000000000000, 0.0000000000000000000 ) ) ;
#169 = VERTEX_POINT ( 'NONE', #62 ) ;
#170 = CARTESIAN_POINT ( 'NONE',  ( 46.00000000000001421, 0.0000000000000000000, 0.0000000000000000000 ) ) ;
#171 = DIRECTION ( 'NONE',  ( 0.0000000000000000000, 0.0000000000000000000, -1.000000000000000000 ) ) ;
#172 =( NAMED_UNIT ( * ) SI_UNIT ( $, .STERADIAN. ) SOLID_ANGLE_UNIT ( ) );
#173 =( GEOMETRIC_REPRESENTATION_CONTEXT ( 3 ) GLOBAL_UNCERTAINTY_ASSIGNED_CONTEXT ( ( #190 ) ) GLOBAL_UNIT_ASSIGNED_CONTEXT ( ( #160, #68, #140 ) ) REPRESENTATION_CONTEXT ( 'NONE', 'WORKASPACE' ) );
#174 = FILL_AREA_STYLE_COLOUR ( '', #42 ) ;
#175 = CARTESIAN_POINT ( 'NONE',  ( -2.939152317953647106E-16, 0.0000000000000000000, 0.0000000000000000000 ) ) ;
#176 =( NAMED_UNIT ( * ) PLANE_ANGLE_UNIT ( ) SI_UNIT ( $, .RADIAN. ) );
#177 = EDGE_LOOP ( 'NONE', ( #117 ) ) ;
#178 = PRESENTATION_LAYER_ASSIGNMENT (  '', '', ( #30 ) ) ;
#179 = ADVANCED_FACE ( 'NONE', ( #3 ), #213, .F. ) ;
#180 = ORIENTED_EDGE ( 'NONE', *, *, #113, .T. ) ;
#181 = CARTESIAN_POINT ( 'NONE',  ( 46.00000000000001421, 0.0000000000000000000, 0.0000000000000000000 ) ) ;
#182 = PRODUCT_DEFINITION_CONTEXT ( 'detailed design', #94, 'design' ) ;
#183 = ORIENTED_EDGE ( 'NONE', *, *, #136, .T. ) ;
#184 =( NAMED_UNIT ( * ) PLANE_ANGLE_UNIT ( ) SI_UNIT ( $, .RADIAN. ) );
#185 = CARTESIAN_POINT ( 'NONE',  ( -867.0000000000000000, 0.0000000000000000000, 0.0000000000000000000 ) ) ;
#186 = PRESENTATION_LAYER_ASSIGNMENT (  '', '', ( #201 ) ) ;
#187 = CIRCLE ( 'NONE', #124, 4.800000000000015810 ) ;
#188 = EDGE_LOOP ( 'NONE', ( #183 ) ) ;
#189 = DIRECTION ( 'NONE',  ( 1.000000000000000000, 0.0000000000000000000, 0.0000000000000000000 ) ) ;
#190 = UNCERTAINTY_MEASURE_WITH_UNIT (LENGTH_MEASURE( 1.000000000000000082E-05 ), #160, 'distance_accuracy_value', 'NONE');
#191 = SURFACE_STYLE_FILL_AREA ( #12 ) ;
#192 = CIRCLE ( 'NONE', #138, 4.800000000000007816 ) ;
#193 = SHAPE_DEFINITION_REPRESENTATION ( #66, #37 ) ;
#194 = DIRECTION ( 'NONE',  ( 1.000000000000000000, 0.0000000000000000000, 0.0000000000000000000 ) ) ;
#195 = AXIS2_PLACEMENT_3D ( 'NONE', #181, #209, #43 ) ;
#196 = CLOSED_SHELL ( 'NONE', ( #95, #16, #36, #162 ) ) ;
#197 = EDGE_LOOP ( 'NONE', ( #79 ) ) ;
#198 = CARTESIAN_POINT ( 'NONE',  ( 0.0000000000000000000, 0.0000000000000000000, 0.0000000000000000000 ) ) ;
#199 = APPLICATION_PROTOCOL_DEFINITION ( 'draft international standard', 'automotive_design', 1998, #94 ) ;
#200 = FACE_OUTER_BOUND ( 'NONE', #35, .T. ) ;
#201 = STYLED_ITEM ( 'NONE', ( #26 ), #37 ) ;
#202 = CARTESIAN_POINT ( 'NONE',  ( 0.0000000000000000000, 0.0000000000000000000, 0.0000000000000000000 ) ) ;
#203 = DIRECTION ( 'NONE',  ( -1.000000000000000000, -0.0000000000000000000, -0.0000000000000000000 ) ) ;
#204 = AXIS2_PLACEMENT_3D ( 'NONE', #114, #60, #39 ) ;
#205 = DIRECTION ( 'NONE',  ( 0.0000000000000000000, 0.0000000000000000000, 1.000000000000000000 ) ) ;
#206 = AXIS2_PLACEMENT_3D ( 'NONE', #202, #128, #54 ) ;
#207 = SURFACE_STYLE_USAGE ( .BOTH. , #9 ) ;
#208 = ORIENTED_EDGE ( 'NONE', *, *, #105, .F. ) ;
#209 = DIRECTION ( 'NONE',  ( 1.000000000000000000, 0.0000000000000000000, 0.0000000000000000000 ) ) ;
#210 = PRESENTATION_STYLE_ASSIGNMENT (( #50 ) ) ;
#211 = PRESENTATION_LAYER_ASSIGNMENT (  '', '', ( #73 ) ) ;
#212 = DIRECTION ( 'NONE',  ( 0.0000000000000000000, 0.0000000000000000000, -1.000000000000000000 ) ) ;
#213 = PLANE ( 'NONE',  #40 ) ;
ENDSEC;
END-ISO-10303-21;
