ISO-10303-21;
HEADER;
FILE_DESCRIPTION (( 'STEP AP214' ),
    '1' );
FILE_NAME ('03-1703.STEP',
    '2021-10-01T05:44:24',
    ( 'USER' ),
    ( '' ),
    'SwSTEP 2.0',
    'SolidWorks 2018',
    '' );
FILE_SCHEMA (( 'AUTOMOTIVE_DESIGN' ));
ENDSEC;

DATA;
#1 = DIRECTION ( 'NONE',  ( 1.000000000000000000, 0.0000000000000000000, 0.0000000000000000000 ) ) ;
#2 = CARTESIAN_POINT ( 'NONE',  ( 46.00000000000001421, 0.0000000000000000000, -4.850000000000006750 ) ) ;
#3 = DIRECTION ( 'NONE',  ( 0.0000000000000000000, 0.0000000000000000000, -1.000000000000000000 ) ) ;
#4 = UNCERTAINTY_MEASURE_WITH_UNIT (LENGTH_MEASURE( 1.000000000000000082E-05 ), #63, 'distance_accuracy_value', 'NONE');
#5 = UNCERTAINTY_MEASURE_WITH_UNIT (LENGTH_MEASURE( 1.000000000000000082E-05 ), #35, 'distance_accuracy_value', 'NONE');
#6 = COLOUR_RGB ( '',0.7921568627450980005, 0.8196078431372548767, 0.9333333333333333481 ) ;
#7 = AXIS2_PLACEMENT_3D ( 'NONE', #137, #120, #154 ) ;
#8 =( LENGTH_UNIT ( ) NAMED_UNIT ( * ) SI_UNIT ( .MILLI., .METRE. ) );
#9 = ORIENTED_EDGE ( 'NONE', *, *, #152, .T. ) ;
#10 = PRODUCT ( '03-1703', '03-1703', '', ( #44 ) ) ;
#11 = COLOUR_RGB ( '',1.000000000000000000, 1.000000000000000000, 0.0000000000000000000 ) ;
#12 = PRESENTATION_LAYER_ASSIGNMENT (  '', '', ( #193 ) ) ;
#13 = FILL_AREA_STYLE_COLOUR ( '', #11 ) ;
#14 = SURFACE_STYLE_USAGE ( .BOTH. , #110 ) ;
#15 = VERTEX_POINT ( 'NONE', #74 ) ;
#16 = FACE_OUTER_BOUND ( 'NONE', #125, .T. ) ;
#17 = COLOUR_RGB ( '',0.7921568627450980005, 0.8196078431372548767, 0.9333333333333333481 ) ;
#18 = EDGE_CURVE ( 'NONE', #53, #53, #107, .T. ) ;
#19 = MECHANICAL_DESIGN_GEOMETRIC_PRESENTATION_REPRESENTATION (  '', ( #208 ), #56 ) ;
#20 = CYLINDRICAL_SURFACE ( 'NONE', #176, 4.850000000000006750 ) ;
#21 = CIRCLE ( 'NONE', #141, 4.850000000000006750 ) ;
#22 = CARTESIAN_POINT ( 'NONE',  ( 0.0000000000000000000, 0.0000000000000000000, 0.0000000000000000000 ) ) ;
#23 = DIRECTION ( 'NONE',  ( 0.0000000000000000000, 0.0000000000000000000, 1.000000000000000000 ) ) ;
#24 = PRESENTATION_LAYER_ASSIGNMENT (  '', '', ( #90 ) ) ;
#25 = SURFACE_STYLE_FILL_AREA ( #126 ) ;
#26 = FACE_OUTER_BOUND ( 'NONE', #196, .T. ) ;
#27 = AXIS2_PLACEMENT_3D ( 'NONE', #91, #1, #206 ) ;
#28 = DIRECTION ( 'NONE',  ( 0.0000000000000000000, 0.0000000000000000000, -1.000000000000000000 ) ) ;
#29 = FILL_AREA_STYLE ('',( #39 ) ) ;
#30 = FACE_BOUND ( 'NONE', #50, .T. ) ;
#31 = DIRECTION ( 'NONE',  ( 0.0000000000000000000, 0.0000000000000000000, 1.000000000000000000 ) ) ;
#32 = AXIS2_PLACEMENT_3D ( 'NONE', #86, #130, #3 ) ;
#33 = PRODUCT_RELATED_PRODUCT_CATEGORY ( 'part', '', ( #10 ) ) ;
#34 = APPLICATION_PROTOCOL_DEFINITION ( 'draft international standard', 'automotive_design', 1998, #170 ) ;
#35 =( LENGTH_UNIT ( ) NAMED_UNIT ( * ) SI_UNIT ( .MILLI., .METRE. ) );
#36 = MANIFOLD_SOLID_BREP ( 'ºÐÇÒ2[2]', #89 ) ;
#37 = AXIS2_PLACEMENT_3D ( 'NONE', #92, #121, #28 ) ;
#38 = PRESENTATION_STYLE_ASSIGNMENT (( #144 ) ) ;
#39 = FILL_AREA_STYLE_COLOUR ( '', #6 ) ;
#40 = STYLED_ITEM ( 'NONE', ( #38 ), #36 ) ;
#41 = AXIS2_PLACEMENT_3D ( 'NONE', #22, #171, #140 ) ;
#42 = ADVANCED_FACE ( 'NONE', ( #104, #30 ), #82, .T. ) ;
#43 = MECHANICAL_DESIGN_GEOMETRIC_PRESENTATION_REPRESENTATION (  '', ( #90 ), #187 ) ;
#44 = PRODUCT_CONTEXT ( 'NONE', #169, 'mechanical' ) ;
#45 = ADVANCED_BREP_SHAPE_REPRESENTATION ( '03-1703', ( #51, #36, #41 ), #47 ) ;
#46 = PRESENTATION_STYLE_ASSIGNMENT (( #103 ) ) ;
#47 =( GEOMETRIC_REPRESENTATION_CONTEXT ( 3 ) GLOBAL_UNCERTAINTY_ASSIGNED_CONTEXT ( ( #178 ) ) GLOBAL_UNIT_ASSIGNED_CONTEXT ( ( #156, #72, #52 ) ) REPRESENTATION_CONTEXT ( 'NONE', 'WORKASPACE' ) );
#48 = DIRECTION ( 'NONE',  ( -1.000000000000000000, -0.0000000000000000000, -0.0000000000000000000 ) ) ;
#49 = CARTESIAN_POINT ( 'NONE',  ( 46.00000000000001421, 0.0000000000000000000, 0.0000000000000000000 ) ) ;
#50 = EDGE_LOOP ( 'NONE', ( #181 ) ) ;
#51 = MANIFOLD_SOLID_BREP ( 'ºÐÇÒ2[1]', #153 ) ;
#52 =( NAMED_UNIT ( * ) SI_UNIT ( $, .STERADIAN. ) SOLID_ANGLE_UNIT ( ) );
#53 = VERTEX_POINT ( 'NONE', #79 ) ;
#54 = CONICAL_SURFACE ( 'NONE', #68, 2414.213562373059176, 1.178097245096167311 ) ;
#55 =( NAMED_UNIT ( * ) PLANE_ANGLE_UNIT ( ) SI_UNIT ( $, .RADIAN. ) );
#56 =( GEOMETRIC_REPRESENTATION_CONTEXT ( 3 ) GLOBAL_UNCERTAINTY_ASSIGNED_CONTEXT ( ( #5 ) ) GLOBAL_UNIT_ASSIGNED_CONTEXT ( ( #35, #209, #211 ) ) REPRESENTATION_CONTEXT ( 'NONE', 'WORKASPACE' ) );
#57 =( NAMED_UNIT ( * ) PLANE_ANGLE_UNIT ( ) SI_UNIT ( $, .RADIAN. ) );
#58 = FACE_OUTER_BOUND ( 'NONE', #132, .T. ) ;
#59 = SHAPE_DEFINITION_REPRESENTATION ( #96, #45 ) ;
#60 = COLOUR_RGB ( '',1.000000000000000000, 1.000000000000000000, 0.0000000000000000000 ) ;
#61 = DIRECTION ( 'NONE',  ( 0.0000000000000000000, 0.0000000000000000000, -1.000000000000000000 ) ) ;
#62 = ADVANCED_FACE ( 'NONE', ( #85, #16 ), #66, .T. ) ;
#63 =( LENGTH_UNIT ( ) NAMED_UNIT ( * ) SI_UNIT ( .MILLI., .METRE. ) );
#64 = EDGE_LOOP ( 'NONE', ( #186 ) ) ;
#65 =( NAMED_UNIT ( * ) SI_UNIT ( $, .STERADIAN. ) SOLID_ANGLE_UNIT ( ) );
#66 = CYLINDRICAL_SURFACE ( 'NONE', #102, 4.850000000000006750 ) ;
#67 = FACE_OUTER_BOUND ( 'NONE', #168, .T. ) ;
#68 = AXIS2_PLACEMENT_3D ( 'NONE', #213, #48, #200 ) ;
#69 = STYLED_ITEM ( 'NONE', ( #77 ), #51 ) ;
#70 = DIRECTION ( 'NONE',  ( 0.0000000000000000000, 0.0000000000000000000, 1.000000000000000000 ) ) ;
#71 = FILL_AREA_STYLE_COLOUR ( '', #17 ) ;
#72 =( NAMED_UNIT ( * ) PLANE_ANGLE_UNIT ( ) SI_UNIT ( $, .RADIAN. ) );
#73 = VERTEX_POINT ( 'NONE', #136 ) ;
#74 = CARTESIAN_POINT ( 'NONE',  ( -2.969768487932330498E-16, 0.0000000000000000000, -3.879999999999994564 ) ) ;
#75 = EDGE_LOOP ( 'NONE', ( #188 ) ) ;
#76 = VERTEX_POINT ( 'NONE', #100 ) ;
#77 = PRESENTATION_STYLE_ASSIGNMENT (( #131 ) ) ;
#78 = ORIENTED_EDGE ( 'NONE', *, *, #164, .T. ) ;
#79 = CARTESIAN_POINT ( 'NONE',  ( 46.00000000000001421, 0.0000000000000000000, -4.850000000000006750 ) ) ;
#80 =( NAMED_UNIT ( * ) SI_UNIT ( $, .STERADIAN. ) SOLID_ANGLE_UNIT ( ) );
#81 = SURFACE_SIDE_STYLE ('',( #97 ) ) ;
#82 = CONICAL_SURFACE ( 'NONE', #7, 3.879999999999994564, 0.7853981633974460586 ) ;
#83 = FILL_AREA_STYLE_COLOUR ( '', #142 ) ;
#84 = VERTEX_POINT ( 'NONE', #2 ) ;
#85 = FACE_OUTER_BOUND ( 'NONE', #75, .T. ) ;
#86 = CARTESIAN_POINT ( 'NONE',  ( 46.00000000000001421, 0.0000000000000000000, 0.0000000000000000000 ) ) ;
#87 = DIRECTION ( 'NONE',  ( 1.000000000000000000, 0.0000000000000000000, 0.0000000000000000000 ) ) ;
#88 =( NAMED_UNIT ( * ) PLANE_ANGLE_UNIT ( ) SI_UNIT ( $, .RADIAN. ) );
#89 = CLOSED_SHELL ( 'NONE', ( #179, #135, #204 ) ) ;
#90 = STYLED_ITEM ( 'NONE', ( #46 ), #135 ) ;
#91 = CARTESIAN_POINT ( 'NONE',  ( -2.969768487932330498E-16, 4.849999999999998757, 0.0000000000000000000 ) ) ;
#92 = CARTESIAN_POINT ( 'NONE',  ( 46.00000000000001421, 0.0000000000000000000, 0.0000000000000000000 ) ) ;
#93 = PRODUCT_DEFINITION ( 'UNKNOWN', '', #112, #203 ) ;
#94 = AXIS2_PLACEMENT_3D ( 'NONE', #184, #207, #160 ) ;
#95 = ORIENTED_EDGE ( 'NONE', *, *, #152, .F. ) ;
#96 = PRODUCT_DEFINITION_SHAPE ( 'NONE', 'NONE',  #93 ) ;
#97 = SURFACE_STYLE_FILL_AREA ( #108 ) ;
#98 = CARTESIAN_POINT ( 'NONE',  ( 0.0000000000000000000, 0.0000000000000000000, 0.0000000000000000000 ) ) ;
#99 = SURFACE_SIDE_STYLE ('',( #165 ) ) ;
#100 = CARTESIAN_POINT ( 'NONE',  ( 0.9700000000000165157, 0.0000000000000000000, -4.850000000000006750 ) ) ;
#101 = FACE_OUTER_BOUND ( 'NONE', #145, .T. ) ;
#102 = AXIS2_PLACEMENT_3D ( 'NONE', #182, #122, #23 ) ;
#103 = SURFACE_STYLE_USAGE ( .BOTH. , #81 ) ;
#104 = FACE_OUTER_BOUND ( 'NONE', #155, .T. ) ;
#105 =( GEOMETRIC_REPRESENTATION_CONTEXT ( 3 ) GLOBAL_UNCERTAINTY_ASSIGNED_CONTEXT ( ( #128 ) ) GLOBAL_UNIT_ASSIGNED_CONTEXT ( ( #146, #88, #183 ) ) REPRESENTATION_CONTEXT ( 'NONE', 'WORKASPACE' ) );
#106 = DIRECTION ( 'NONE',  ( 0.0000000000000000000, 0.0000000000000000000, -1.000000000000000000 ) ) ;
#107 = CIRCLE ( 'NONE', #32, 4.850000000000006750 ) ;
#108 = FILL_AREA_STYLE ('',( #197 ) ) ;
#109 = CARTESIAN_POINT ( 'NONE',  ( 46.00000000000001421, 0.0000000000000000000, 0.0000000000000000000 ) ) ;
#110 = SURFACE_SIDE_STYLE ('',( #116 ) ) ;
#111 = DIRECTION ( 'NONE',  ( -1.000000000000000000, -0.0000000000000000000, -0.0000000000000000000 ) ) ;
#112 = PRODUCT_DEFINITION_FORMATION_WITH_SPECIFIED_SOURCE ( 'ANY', '', #10, .NOT_KNOWN. ) ;
#113 = ORIENTED_EDGE ( 'NONE', *, *, #164, .F. ) ;
#114 = CARTESIAN_POINT ( 'NONE',  ( -2.969768487932330498E-16, 0.0000000000000000000, 0.0000000000000000000 ) ) ;
#115 = APPLICATION_PROTOCOL_DEFINITION ( 'draft international standard', 'automotive_design', 1998, #169 ) ;
#116 = SURFACE_STYLE_FILL_AREA ( #127 ) ;
#117 = CIRCLE ( 'NONE', #139, 3.879999999999994564 ) ;
#118 = DIRECTION ( 'NONE',  ( -1.000000000000000000, -0.0000000000000000000, -0.0000000000000000000 ) ) ;
#119 = ADVANCED_FACE ( 'NONE', ( #150 ), #180, .T. ) ;
#120 = DIRECTION ( 'NONE',  ( 1.000000000000000000, 0.0000000000000000000, 0.0000000000000000000 ) ) ;
#121 = DIRECTION ( 'NONE',  ( 1.000000000000000000, 0.0000000000000000000, 0.0000000000000000000 ) ) ;
#122 = DIRECTION ( 'NONE',  ( -1.000000000000000000, -0.0000000000000000000, -0.0000000000000000000 ) ) ;
#123 = PRESENTATION_LAYER_ASSIGNMENT (  '', '', ( #69 ) ) ;
#124 = CIRCLE ( 'NONE', #167, 4.850000000000014744 ) ;
#125 = EDGE_LOOP ( 'NONE', ( #113 ) ) ;
#126 = FILL_AREA_STYLE ('',( #83 ) ) ;
#127 = FILL_AREA_STYLE ('',( #71 ) ) ;
#128 = UNCERTAINTY_MEASURE_WITH_UNIT (LENGTH_MEASURE( 1.000000000000000082E-05 ), #146, 'distance_accuracy_value', 'NONE');
#129 = PLANE ( 'NONE',  #27 ) ;
#130 = DIRECTION ( 'NONE',  ( 1.000000000000000000, 0.0000000000000000000, 0.0000000000000000000 ) ) ;
#131 = SURFACE_STYLE_USAGE ( .BOTH. , #201 ) ;
#132 = EDGE_LOOP ( 'NONE', ( #9 ) ) ;
#133 = EDGE_CURVE ( 'NONE', #15, #15, #117, .T. ) ;
#134 = PRESENTATION_STYLE_ASSIGNMENT (( #14 ) ) ;
#135 = ADVANCED_FACE ( 'NONE', ( #67, #58 ), #20, .T. ) ;
#136 = CARTESIAN_POINT ( 'NONE',  ( 130.9910642224904507, 0.0000000000000000000, 4.850000000000014744 ) ) ;
#137 = CARTESIAN_POINT ( 'NONE',  ( -2.969768487932330498E-16, 0.0000000000000000000, 0.0000000000000000000 ) ) ;
#138 = MECHANICAL_DESIGN_GEOMETRIC_PRESENTATION_REPRESENTATION (  '', ( #69 ), #105 ) ;
#139 = AXIS2_PLACEMENT_3D ( 'NONE', #114, #148, #106 ) ;
#140 = DIRECTION ( 'NONE',  ( 1.000000000000000000, 0.0000000000000000000, 0.0000000000000000000 ) ) ;
#141 = AXIS2_PLACEMENT_3D ( 'NONE', #109, #87, #61 ) ;
#142 = COLOUR_RGB ( '',0.7921568627450980005, 0.8196078431372548767, 0.9333333333333333481 ) ;
#143 = EDGE_CURVE ( 'NONE', #76, #76, #173, .T. ) ;
#144 = SURFACE_STYLE_USAGE ( .BOTH. , #99 ) ;
#145 = EDGE_LOOP ( 'NONE', ( #95 ) ) ;
#146 =( LENGTH_UNIT ( ) NAMED_UNIT ( * ) SI_UNIT ( .MILLI., .METRE. ) );
#147 = UNCERTAINTY_MEASURE_WITH_UNIT (LENGTH_MEASURE( 1.000000000000000082E-05 ), #8, 'distance_accuracy_value', 'NONE');
#148 = DIRECTION ( 'NONE',  ( -1.000000000000000000, -0.0000000000000000000, -0.0000000000000000000 ) ) ;
#149 =( GEOMETRIC_REPRESENTATION_CONTEXT ( 3 ) GLOBAL_UNCERTAINTY_ASSIGNED_CONTEXT ( ( #147 ) ) GLOBAL_UNIT_ASSIGNED_CONTEXT ( ( #8, #166, #151 ) ) REPRESENTATION_CONTEXT ( 'NONE', 'WORKASPACE' ) );
#150 = FACE_OUTER_BOUND ( 'NONE', #210, .T. ) ;
#151 =( NAMED_UNIT ( * ) SI_UNIT ( $, .STERADIAN. ) SOLID_ANGLE_UNIT ( ) );
#152 = EDGE_CURVE ( 'NONE', #73, #73, #124, .T. ) ;
#153 = CLOSED_SHELL ( 'NONE', ( #62, #192, #42, #119 ) ) ;
#154 = DIRECTION ( 'NONE',  ( 0.0000000000000000000, 0.0000000000000000000, -1.000000000000000000 ) ) ;
#155 = EDGE_LOOP ( 'NONE', ( #202 ) ) ;
#156 =( LENGTH_UNIT ( ) NAMED_UNIT ( * ) SI_UNIT ( .MILLI., .METRE. ) );
#157 = MECHANICAL_DESIGN_GEOMETRIC_PRESENTATION_REPRESENTATION (  '', ( #40 ), #149 ) ;
#158 = SURFACE_SIDE_STYLE ('',( #194 ) ) ;
#159 = PRESENTATION_STYLE_ASSIGNMENT (( #189 ) ) ;
#160 = DIRECTION ( 'NONE',  ( 0.0000000000000000000, 0.0000000000000000000, -1.000000000000000000 ) ) ;
#161 = PLANE ( 'NONE',  #185 ) ;
#162 = UNCERTAINTY_MEASURE_WITH_UNIT (LENGTH_MEASURE( 1.000000000000000082E-05 ), #163, 'distance_accuracy_value', 'NONE');
#163 =( LENGTH_UNIT ( ) NAMED_UNIT ( * ) SI_UNIT ( .MILLI., .METRE. ) );
#164 = EDGE_CURVE ( 'NONE', #84, #84, #21, .T. ) ;
#165 = SURFACE_STYLE_FILL_AREA ( #29 ) ;
#166 =( NAMED_UNIT ( * ) PLANE_ANGLE_UNIT ( ) SI_UNIT ( $, .RADIAN. ) );
#167 = AXIS2_PLACEMENT_3D ( 'NONE', #174, #118, #31 ) ;
#168 = EDGE_LOOP ( 'NONE', ( #172 ) ) ;
#169 = APPLICATION_CONTEXT ( 'automotive_design' ) ;
#170 = APPLICATION_CONTEXT ( 'automotive_design' ) ;
#171 = DIRECTION ( 'NONE',  ( 0.0000000000000000000, 0.0000000000000000000, 1.000000000000000000 ) ) ;
#172 = ORIENTED_EDGE ( 'NONE', *, *, #18, .T. ) ;
#173 = CIRCLE ( 'NONE', #94, 4.850000000000006750 ) ;
#174 = CARTESIAN_POINT ( 'NONE',  ( 130.9910642224904507, 0.0000000000000000000, 0.0000000000000000000 ) ) ;
#175 = DIRECTION ( 'NONE',  ( 1.000000000000000000, 0.0000000000000000000, 0.0000000000000000000 ) ) ;
#176 = AXIS2_PLACEMENT_3D ( 'NONE', #98, #111, #70 ) ;
#177 = ORIENTED_EDGE ( 'NONE', *, *, #133, .T. ) ;
#178 = UNCERTAINTY_MEASURE_WITH_UNIT (LENGTH_MEASURE( 1.000000000000000082E-05 ), #156, 'distance_accuracy_value', 'NONE');
#179 = ADVANCED_FACE ( 'NONE', ( #191 ), #161, .F. ) ;
#180 = PLANE ( 'NONE',  #37 ) ;
#181 = ORIENTED_EDGE ( 'NONE', *, *, #133, .F. ) ;
#182 = CARTESIAN_POINT ( 'NONE',  ( 0.0000000000000000000, 0.0000000000000000000, 0.0000000000000000000 ) ) ;
#183 =( NAMED_UNIT ( * ) SI_UNIT ( $, .STERADIAN. ) SOLID_ANGLE_UNIT ( ) );
#184 = CARTESIAN_POINT ( 'NONE',  ( 0.9700000000000165157, 0.0000000000000000000, 0.0000000000000000000 ) ) ;
#185 = AXIS2_PLACEMENT_3D ( 'NONE', #49, #175, #199 ) ;
#186 = ORIENTED_EDGE ( 'NONE', *, *, #18, .F. ) ;
#187 =( GEOMETRIC_REPRESENTATION_CONTEXT ( 3 ) GLOBAL_UNCERTAINTY_ASSIGNED_CONTEXT ( ( #162 ) ) GLOBAL_UNIT_ASSIGNED_CONTEXT ( ( #163, #57, #65 ) ) REPRESENTATION_CONTEXT ( 'NONE', 'WORKASPACE' ) );
#188 = ORIENTED_EDGE ( 'NONE', *, *, #143, .T. ) ;
#189 = SURFACE_STYLE_USAGE ( .BOTH. , #158 ) ;
#190 = FILL_AREA_STYLE ('',( #13 ) ) ;
#191 = FACE_OUTER_BOUND ( 'NONE', #64, .T. ) ;
#192 = ADVANCED_FACE ( 'NONE', ( #26 ), #129, .F. ) ;
#193 = STYLED_ITEM ( 'NONE', ( #159 ), #204 ) ;
#194 = SURFACE_STYLE_FILL_AREA ( #190 ) ;
#195 = PRESENTATION_LAYER_ASSIGNMENT (  '', '', ( #40 ) ) ;
#196 = EDGE_LOOP ( 'NONE', ( #177 ) ) ;
#197 = FILL_AREA_STYLE_COLOUR ( '', #60 ) ;
#198 = PRESENTATION_LAYER_ASSIGNMENT (  '', '', ( #208 ) ) ;
#199 = DIRECTION ( 'NONE',  ( 0.0000000000000000000, 0.0000000000000000000, -1.000000000000000000 ) ) ;
#200 = DIRECTION ( 'NONE',  ( 0.0000000000000000000, 0.0000000000000000000, 1.000000000000000000 ) ) ;
#201 = SURFACE_SIDE_STYLE ('',( #25 ) ) ;
#202 = ORIENTED_EDGE ( 'NONE', *, *, #143, .F. ) ;
#203 = PRODUCT_DEFINITION_CONTEXT ( 'detailed design', #170, 'design' ) ;
#204 = ADVANCED_FACE ( 'NONE', ( #101 ), #54, .T. ) ;
#205 =( GEOMETRIC_REPRESENTATION_CONTEXT ( 3 ) GLOBAL_UNCERTAINTY_ASSIGNED_CONTEXT ( ( #4 ) ) GLOBAL_UNIT_ASSIGNED_CONTEXT ( ( #63, #55, #80 ) ) REPRESENTATION_CONTEXT ( 'NONE', 'WORKASPACE' ) );
#206 = DIRECTION ( 'NONE',  ( 0.0000000000000000000, 0.0000000000000000000, -1.000000000000000000 ) ) ;
#207 = DIRECTION ( 'NONE',  ( 1.000000000000000000, 0.0000000000000000000, 0.0000000000000000000 ) ) ;
#208 = STYLED_ITEM ( 'NONE', ( #134 ), #45 ) ;
#209 =( NAMED_UNIT ( * ) PLANE_ANGLE_UNIT ( ) SI_UNIT ( $, .RADIAN. ) );
#210 = EDGE_LOOP ( 'NONE', ( #78 ) ) ;
#211 =( NAMED_UNIT ( * ) SI_UNIT ( $, .STERADIAN. ) SOLID_ANGLE_UNIT ( ) );
#212 = MECHANICAL_DESIGN_GEOMETRIC_PRESENTATION_REPRESENTATION (  '', ( #193 ), #205 ) ;
#213 = CARTESIAN_POINT ( 'NONE',  ( -867.0000000000000000, 0.0000000000000000000, 0.0000000000000000000 ) ) ;
ENDSEC;
END-ISO-10303-21;
