ISO-10303-21;
HEADER;
FILE_DESCRIPTION (( 'STEP AP214' ),
    '1' );
FILE_NAME ('03-1704.STEP',
    '2021-10-01T05:44:43',
    ( 'USER' ),
    ( '' ),
    'SwSTEP 2.0',
    'SolidWorks 2018',
    '' );
FILE_SCHEMA (( 'AUTOMOTIVE_DESIGN' ));
ENDSEC;

DATA;
#1 =( GEOMETRIC_REPRESENTATION_CONTEXT ( 3 ) GLOBAL_UNCERTAINTY_ASSIGNED_CONTEXT ( ( #201 ) ) GLOBAL_UNIT_ASSIGNED_CONTEXT ( ( #58, #35, #149 ) ) REPRESENTATION_CONTEXT ( 'NONE', 'WORKASPACE' ) );
#2 = FACE_OUTER_BOUND ( 'NONE', #83, .T. ) ;
#3 = ORIENTED_EDGE ( 'NONE', *, *, #31, .F. ) ;
#4 = DIRECTION ( 'NONE',  ( 1.000000000000000000, 0.0000000000000000000, 0.0000000000000000000 ) ) ;
#5 = MECHANICAL_DESIGN_GEOMETRIC_PRESENTATION_REPRESENTATION (  '', ( #200 ), #33 ) ;
#6 = FACE_OUTER_BOUND ( 'NONE', #13, .T. ) ;
#7 =( LENGTH_UNIT ( ) NAMED_UNIT ( * ) SI_UNIT ( .MILLI., .METRE. ) );
#8 = AXIS2_PLACEMENT_3D ( 'NONE', #126, #16, #9 ) ;
#9 = DIRECTION ( 'NONE',  ( 0.0000000000000000000, 0.0000000000000000000, 1.000000000000000000 ) ) ;
#10 = EDGE_LOOP ( 'NONE', ( #82 ) ) ;
#11 = DIRECTION ( 'NONE',  ( 0.0000000000000000000, 0.0000000000000000000, -1.000000000000000000 ) ) ;
#12 = MECHANICAL_DESIGN_GEOMETRIC_PRESENTATION_REPRESENTATION (  '', ( #21 ), #1 ) ;
#13 = EDGE_LOOP ( 'NONE', ( #3 ) ) ;
#14 = APPLICATION_CONTEXT ( 'automotive_design' ) ;
#15 =( NAMED_UNIT ( * ) PLANE_ANGLE_UNIT ( ) SI_UNIT ( $, .RADIAN. ) );
#16 = DIRECTION ( 'NONE',  ( -1.000000000000000000, -0.0000000000000000000, -0.0000000000000000000 ) ) ;
#17 = CARTESIAN_POINT ( 'NONE',  ( 46.00000000000001421, 0.0000000000000000000, -4.900000000000008349 ) ) ;
#18 = ORIENTED_EDGE ( 'NONE', *, *, #151, .F. ) ;
#19 = FACE_OUTER_BOUND ( 'NONE', #20, .T. ) ;
#20 = EDGE_LOOP ( 'NONE', ( #169 ) ) ;
#21 = STYLED_ITEM ( 'NONE', ( #165 ), #192 ) ;
#22 = ADVANCED_FACE ( 'NONE', ( #63 ), #173, .T. ) ;
#23 = CLOSED_SHELL ( 'NONE', ( #44, #192, #64 ) ) ;
#24 = ORIENTED_EDGE ( 'NONE', *, *, #151, .T. ) ;
#25 = AXIS2_PLACEMENT_3D ( 'NONE', #206, #145, #34 ) ;
#26 = CARTESIAN_POINT ( 'NONE',  ( 46.00000000000001421, 0.0000000000000000000, -4.900000000000008349 ) ) ;
#27 = PRESENTATION_LAYER_ASSIGNMENT (  '', '', ( #21 ) ) ;
#28 = APPLICATION_CONTEXT ( 'automotive_design' ) ;
#29 = EDGE_LOOP ( 'NONE', ( #57 ) ) ;
#30 = PRODUCT_DEFINITION_SHAPE ( 'NONE', 'NONE',  #77 ) ;
#31 = EDGE_CURVE ( 'NONE', #191, #191, #65, .T. ) ;
#32 =( NAMED_UNIT ( * ) PLANE_ANGLE_UNIT ( ) SI_UNIT ( $, .RADIAN. ) );
#33 =( GEOMETRIC_REPRESENTATION_CONTEXT ( 3 ) GLOBAL_UNCERTAINTY_ASSIGNED_CONTEXT ( ( #80 ) ) GLOBAL_UNIT_ASSIGNED_CONTEXT ( ( #98, #147, #148 ) ) REPRESENTATION_CONTEXT ( 'NONE', 'WORKASPACE' ) );
#34 = DIRECTION ( 'NONE',  ( 0.0000000000000000000, 0.0000000000000000000, -1.000000000000000000 ) ) ;
#35 =( NAMED_UNIT ( * ) PLANE_ANGLE_UNIT ( ) SI_UNIT ( $, .RADIAN. ) );
#36 = AXIS2_PLACEMENT_3D ( 'NONE', #152, #4, #132 ) ;
#37 = SURFACE_SIDE_STYLE ('',( #46 ) ) ;
#38 = DIRECTION ( 'NONE',  ( 1.000000000000000000, 0.0000000000000000000, 0.0000000000000000000 ) ) ;
#39 = EDGE_LOOP ( 'NONE', ( #79 ) ) ;
#40 = AXIS2_PLACEMENT_3D ( 'NONE', #162, #130, #137 ) ;
#41 = DIRECTION ( 'NONE',  ( 0.0000000000000000000, 0.0000000000000000000, -1.000000000000000000 ) ) ;
#42 = CARTESIAN_POINT ( 'NONE',  ( 0.9800000000000336220, 0.0000000000000000000, 0.0000000000000000000 ) ) ;
#43 = VERTEX_POINT ( 'NONE', #26 ) ;
#44 = ADVANCED_FACE ( 'NONE', ( #6 ), #89, .F. ) ;
#45 = FILL_AREA_STYLE ('',( #189 ) ) ;
#46 = SURFACE_STYLE_FILL_AREA ( #45 ) ;
#47 = PRODUCT_RELATED_PRODUCT_CATEGORY ( 'part', '', ( #81 ) ) ;
#48 = COLOUR_RGB ( '',1.000000000000000000, 1.000000000000000000, 0.0000000000000000000 ) ;
#49 = EDGE_LOOP ( 'NONE', ( #24 ) ) ;
#50 = CIRCLE ( 'NONE', #113, 4.900000000000016342 ) ;
#51 = SURFACE_SIDE_STYLE ('',( #166 ) ) ;
#52 = CARTESIAN_POINT ( 'NONE',  ( 46.00000000000001421, 0.0000000000000000000, 0.0000000000000000000 ) ) ;
#53 =( GEOMETRIC_REPRESENTATION_CONTEXT ( 3 ) GLOBAL_UNCERTAINTY_ASSIGNED_CONTEXT ( ( #62 ) ) GLOBAL_UNIT_ASSIGNED_CONTEXT ( ( #115, #15, #73 ) ) REPRESENTATION_CONTEXT ( 'NONE', 'WORKASPACE' ) );
#54 = FACE_BOUND ( 'NONE', #39, .T. ) ;
#55 = MANIFOLD_SOLID_BREP ( 'ºÐÇÒ2[1]', #120 ) ;
#56 = DIRECTION ( 'NONE',  ( -1.000000000000000000, -0.0000000000000000000, -0.0000000000000000000 ) ) ;
#57 = ORIENTED_EDGE ( 'NONE', *, *, #176, .T. ) ;
#58 =( LENGTH_UNIT ( ) NAMED_UNIT ( * ) SI_UNIT ( .MILLI., .METRE. ) );
#59 = FILL_AREA_STYLE ('',( #78 ) ) ;
#60 = AXIS2_PLACEMENT_3D ( 'NONE', #209, #38, #69 ) ;
#61 = EDGE_LOOP ( 'NONE', ( #18 ) ) ;
#62 = UNCERTAINTY_MEASURE_WITH_UNIT (LENGTH_MEASURE( 1.000000000000000082E-05 ), #115, 'distance_accuracy_value', 'NONE');
#63 = FACE_OUTER_BOUND ( 'NONE', #49, .T. ) ;
#64 = ADVANCED_FACE ( 'NONE', ( #2 ), #95, .T. ) ;
#65 = CIRCLE ( 'NONE', #60, 4.900000000000008349 ) ;
#66 = AXIS2_PLACEMENT_3D ( 'NONE', #213, #211, #93 ) ;
#67 = PRESENTATION_LAYER_ASSIGNMENT (  '', '', ( #107 ) ) ;
#68 = PRESENTATION_STYLE_ASSIGNMENT (( #112 ) ) ;
#69 = DIRECTION ( 'NONE',  ( 0.0000000000000000000, 0.0000000000000000000, -1.000000000000000000 ) ) ;
#70 = FILL_AREA_STYLE ('',( #154 ) ) ;
#71 = SURFACE_STYLE_USAGE ( .BOTH. , #125 ) ;
#72 = FACE_OUTER_BOUND ( 'NONE', #61, .T. ) ;
#73 =( NAMED_UNIT ( * ) SI_UNIT ( $, .STERADIAN. ) SOLID_ANGLE_UNIT ( ) );
#74 = DIRECTION ( 'NONE',  ( 1.000000000000000000, 0.0000000000000000000, 0.0000000000000000000 ) ) ;
#75 = SURFACE_STYLE_FILL_AREA ( #59 ) ;
#76 = EDGE_LOOP ( 'NONE', ( #121 ) ) ;
#77 = PRODUCT_DEFINITION ( 'UNKNOWN', '', #128, #167 ) ;
#78 = FILL_AREA_STYLE_COLOUR ( '', #48 ) ;
#79 = ORIENTED_EDGE ( 'NONE', *, *, #160, .F. ) ;
#80 = UNCERTAINTY_MEASURE_WITH_UNIT (LENGTH_MEASURE( 1.000000000000000082E-05 ), #98, 'distance_accuracy_value', 'NONE');
#81 = PRODUCT ( '03-1704', '03-1704', '', ( #144 ) ) ;
#82 = ORIENTED_EDGE ( 'NONE', *, *, #170, .T. ) ;
#83 = EDGE_LOOP ( 'NONE', ( #208 ) ) ;
#84 = AXIS2_PLACEMENT_3D ( 'NONE', #202, #135, #138 ) ;
#85 = CIRCLE ( 'NONE', #182, 4.900000000000008349 ) ;
#86 = CYLINDRICAL_SURFACE ( 'NONE', #66, 4.900000000000008349 ) ;
#87 = DIRECTION ( 'NONE',  ( 1.000000000000000000, 0.0000000000000000000, 0.0000000000000000000 ) ) ;
#88 = VERTEX_POINT ( 'NONE', #175 ) ;
#89 = PLANE ( 'NONE',  #25 ) ;
#90 = SURFACE_STYLE_USAGE ( .BOTH. , #134 ) ;
#91 = PLANE ( 'NONE',  #40 ) ;
#92 = PRESENTATION_LAYER_ASSIGNMENT (  '', '', ( #187 ) ) ;
#93 = DIRECTION ( 'NONE',  ( 0.0000000000000000000, 0.0000000000000000000, 1.000000000000000000 ) ) ;
#94 = CIRCLE ( 'NONE', #117, 4.900000000000008349 ) ;
#95 = CONICAL_SURFACE ( 'NONE', #8, 2414.213562373064178, 1.178097245096167978 ) ;
#96 = CIRCLE ( 'NONE', #196, 3.919999999999979057 ) ;
#97 = DIRECTION ( 'NONE',  ( 1.000000000000000000, 0.0000000000000000000, 0.0000000000000000000 ) ) ;
#98 =( LENGTH_UNIT ( ) NAMED_UNIT ( * ) SI_UNIT ( .MILLI., .METRE. ) );
#99 = PRESENTATION_STYLE_ASSIGNMENT (( #90 ) ) ;
#100 = FILL_AREA_STYLE_COLOUR ( '', #163 ) ;
#101 = PRESENTATION_STYLE_ASSIGNMENT (( #114 ) ) ;
#102 = COLOUR_RGB ( '',0.7921568627450980005, 0.8196078431372548767, 0.9333333333333333481 ) ;
#103 = MECHANICAL_DESIGN_GEOMETRIC_PRESENTATION_REPRESENTATION (  '', ( #107 ), #53 ) ;
#104 = FILL_AREA_STYLE ('',( #100 ) ) ;
#105 = CONICAL_SURFACE ( 'NONE', #36, 3.919999999999979057, 0.7853981633974460586 ) ;
#106 = APPLICATION_PROTOCOL_DEFINITION ( 'draft international standard', 'automotive_design', 1998, #14 ) ;
#107 = STYLED_ITEM ( 'NONE', ( #101 ), #64 ) ;
#108 = FACE_OUTER_BOUND ( 'NONE', #76, .T. ) ;
#109 = FACE_OUTER_BOUND ( 'NONE', #123, .T. ) ;
#110 = DIRECTION ( 'NONE',  ( -1.000000000000000000, -0.0000000000000000000, -0.0000000000000000000 ) ) ;
#111 = DIRECTION ( 'NONE',  ( 0.0000000000000000000, 0.0000000000000000000, -1.000000000000000000 ) ) ;
#112 = SURFACE_STYLE_USAGE ( .BOTH. , #51 ) ;
#113 = AXIS2_PLACEMENT_3D ( 'NONE', #155, #110, #203 ) ;
#114 = SURFACE_STYLE_USAGE ( .BOTH. , #127 ) ;
#115 =( LENGTH_UNIT ( ) NAMED_UNIT ( * ) SI_UNIT ( .MILLI., .METRE. ) );
#116 = SURFACE_STYLE_FILL_AREA ( #157 ) ;
#117 = AXIS2_PLACEMENT_3D ( 'NONE', #142, #74, #195 ) ;
#118 = SURFACE_STYLE_FILL_AREA ( #104 ) ;
#119 = CARTESIAN_POINT ( 'NONE',  ( 130.9703535443718181, 0.0000000000000000000, 4.900000000000016342 ) ) ;
#120 = CLOSED_SHELL ( 'NONE', ( #124, #181, #141, #22 ) ) ;
#121 = ORIENTED_EDGE ( 'NONE', *, *, #31, .T. ) ;
#122 = PRESENTATION_LAYER_ASSIGNMENT (  '', '', ( #183 ) ) ;
#123 = EDGE_LOOP ( 'NONE', ( #194 ) ) ;
#124 = ADVANCED_FACE ( 'NONE', ( #153, #72 ), #86, .T. ) ;
#125 = SURFACE_SIDE_STYLE ('',( #116 ) ) ;
#126 = CARTESIAN_POINT ( 'NONE',  ( -867.0000000000000000, 0.0000000000000000000, 0.0000000000000000000 ) ) ;
#127 = SURFACE_SIDE_STYLE ('',( #75 ) ) ;
#128 = PRODUCT_DEFINITION_FORMATION_WITH_SPECIFIED_SOURCE ( 'ANY', '', #81, .NOT_KNOWN. ) ;
#129 =( NAMED_UNIT ( * ) PLANE_ANGLE_UNIT ( ) SI_UNIT ( $, .RADIAN. ) );
#130 = DIRECTION ( 'NONE',  ( 1.000000000000000000, 0.0000000000000000000, 0.0000000000000000000 ) ) ;
#131 = CARTESIAN_POINT ( 'NONE',  ( -3.000384657911014877E-16, 0.0000000000000000000, 0.0000000000000000000 ) ) ;
#132 = DIRECTION ( 'NONE',  ( 0.0000000000000000000, 0.0000000000000000000, -1.000000000000000000 ) ) ;
#133 = UNCERTAINTY_MEASURE_WITH_UNIT (LENGTH_MEASURE( 1.000000000000000082E-05 ), #186, 'distance_accuracy_value', 'NONE');
#134 = SURFACE_SIDE_STYLE ('',( #118 ) ) ;
#135 = DIRECTION ( 'NONE',  ( 0.0000000000000000000, 0.0000000000000000000, 1.000000000000000000 ) ) ;
#136 =( NAMED_UNIT ( * ) SI_UNIT ( $, .STERADIAN. ) SOLID_ANGLE_UNIT ( ) );
#137 = DIRECTION ( 'NONE',  ( 0.0000000000000000000, 0.0000000000000000000, -1.000000000000000000 ) ) ;
#138 = DIRECTION ( 'NONE',  ( 1.000000000000000000, 0.0000000000000000000, 0.0000000000000000000 ) ) ;
#139 =( GEOMETRIC_REPRESENTATION_CONTEXT ( 3 ) GLOBAL_UNCERTAINTY_ASSIGNED_CONTEXT ( ( #177 ) ) GLOBAL_UNIT_ASSIGNED_CONTEXT ( ( #7, #199, #136 ) ) REPRESENTATION_CONTEXT ( 'NONE', 'WORKASPACE' ) );
#140 = FILL_AREA_STYLE_COLOUR ( '', #102 ) ;
#141 = ADVANCED_FACE ( 'NONE', ( #19, #54 ), #105, .T. ) ;
#142 = CARTESIAN_POINT ( 'NONE',  ( 46.00000000000001421, 0.0000000000000000000, 0.0000000000000000000 ) ) ;
#143 = MECHANICAL_DESIGN_GEOMETRIC_PRESENTATION_REPRESENTATION (  '', ( #183 ), #158 ) ;
#144 = PRODUCT_CONTEXT ( 'NONE', #28, 'mechanical' ) ;
#145 = DIRECTION ( 'NONE',  ( 1.000000000000000000, 0.0000000000000000000, 0.0000000000000000000 ) ) ;
#146 = COLOUR_RGB ( '',1.000000000000000000, 1.000000000000000000, 0.0000000000000000000 ) ;
#147 =( NAMED_UNIT ( * ) PLANE_ANGLE_UNIT ( ) SI_UNIT ( $, .RADIAN. ) );
#148 =( NAMED_UNIT ( * ) SI_UNIT ( $, .STERADIAN. ) SOLID_ANGLE_UNIT ( ) );
#149 =( NAMED_UNIT ( * ) SI_UNIT ( $, .STERADIAN. ) SOLID_ANGLE_UNIT ( ) );
#150 = CARTESIAN_POINT ( 'NONE',  ( 0.0000000000000000000, 0.0000000000000000000, 0.0000000000000000000 ) ) ;
#151 = EDGE_CURVE ( 'NONE', #43, #43, #94, .T. ) ;
#152 = CARTESIAN_POINT ( 'NONE',  ( -3.000384657911014877E-16, 0.0000000000000000000, 0.0000000000000000000 ) ) ;
#153 = FACE_OUTER_BOUND ( 'NONE', #10, .T. ) ;
#154 = FILL_AREA_STYLE_COLOUR ( '', #168 ) ;
#155 = CARTESIAN_POINT ( 'NONE',  ( 130.9703535443718181, 0.0000000000000000000, 0.0000000000000000000 ) ) ;
#156 = PRESENTATION_STYLE_ASSIGNMENT (( #71 ) ) ;
#157 = FILL_AREA_STYLE ('',( #140 ) ) ;
#158 =( GEOMETRIC_REPRESENTATION_CONTEXT ( 3 ) GLOBAL_UNCERTAINTY_ASSIGNED_CONTEXT ( ( #133 ) ) GLOBAL_UNIT_ASSIGNED_CONTEXT ( ( #186, #129, #190 ) ) REPRESENTATION_CONTEXT ( 'NONE', 'WORKASPACE' ) );
#159 = FACE_OUTER_BOUND ( 'NONE', #29, .T. ) ;
#160 = EDGE_CURVE ( 'NONE', #88, #88, #96, .T. ) ;
#161 = ADVANCED_BREP_SHAPE_REPRESENTATION ( '03-1704', ( #55, #180, #84 ), #139 ) ;
#162 = CARTESIAN_POINT ( 'NONE',  ( -3.000384657911014877E-16, 4.899999999999999467, 0.0000000000000000000 ) ) ;
#163 = COLOUR_RGB ( '',0.7921568627450980005, 0.8196078431372548767, 0.9333333333333333481 ) ;
#164 = SHAPE_DEFINITION_REPRESENTATION ( #30, #161 ) ;
#165 = PRESENTATION_STYLE_ASSIGNMENT (( #174 ) ) ;
#166 = SURFACE_STYLE_FILL_AREA ( #70 ) ;
#167 = PRODUCT_DEFINITION_CONTEXT ( 'detailed design', #14, 'design' ) ;
#168 = COLOUR_RGB ( '',0.7921568627450980005, 0.8196078431372548767, 0.9333333333333333481 ) ;
#169 = ORIENTED_EDGE ( 'NONE', *, *, #170, .F. ) ;
#170 = EDGE_CURVE ( 'NONE', #172, #172, #85, .T. ) ;
#171 = VERTEX_POINT ( 'NONE', #119 ) ;
#172 = VERTEX_POINT ( 'NONE', #197 ) ;
#173 = PLANE ( 'NONE',  #204 ) ;
#174 = SURFACE_STYLE_USAGE ( .BOTH. , #37 ) ;
#175 = CARTESIAN_POINT ( 'NONE',  ( -3.000384657911014877E-16, 0.0000000000000000000, -3.919999999999979057 ) ) ;
#176 = EDGE_CURVE ( 'NONE', #171, #171, #50, .T. ) ;
#177 = UNCERTAINTY_MEASURE_WITH_UNIT (LENGTH_MEASURE( 1.000000000000000082E-05 ), #7, 'distance_accuracy_value', 'NONE');
#178 = APPLICATION_PROTOCOL_DEFINITION ( 'draft international standard', 'automotive_design', 1998, #28 ) ;
#179 = UNCERTAINTY_MEASURE_WITH_UNIT (LENGTH_MEASURE( 1.000000000000000082E-05 ), #185, 'distance_accuracy_value', 'NONE');
#180 = MANIFOLD_SOLID_BREP ( 'ºÐÇÒ2[2]', #23 ) ;
#181 = ADVANCED_FACE ( 'NONE', ( #109 ), #91, .F. ) ;
#182 = AXIS2_PLACEMENT_3D ( 'NONE', #42, #87, #111 ) ;
#183 = STYLED_ITEM ( 'NONE', ( #68 ), #55 ) ;
#184 = MECHANICAL_DESIGN_GEOMETRIC_PRESENTATION_REPRESENTATION (  '', ( #187 ), #207 ) ;
#185 =( LENGTH_UNIT ( ) NAMED_UNIT ( * ) SI_UNIT ( .MILLI., .METRE. ) );
#186 =( LENGTH_UNIT ( ) NAMED_UNIT ( * ) SI_UNIT ( .MILLI., .METRE. ) );
#187 = STYLED_ITEM ( 'NONE', ( #156 ), #180 ) ;
#188 = DIRECTION ( 'NONE',  ( -1.000000000000000000, -0.0000000000000000000, -0.0000000000000000000 ) ) ;
#189 = FILL_AREA_STYLE_COLOUR ( '', #146 ) ;
#190 =( NAMED_UNIT ( * ) SI_UNIT ( $, .STERADIAN. ) SOLID_ANGLE_UNIT ( ) );
#191 = VERTEX_POINT ( 'NONE', #17 ) ;
#192 = ADVANCED_FACE ( 'NONE', ( #108, #159 ), #198, .T. ) ;
#193 = PRESENTATION_LAYER_ASSIGNMENT (  '', '', ( #200 ) ) ;
#194 = ORIENTED_EDGE ( 'NONE', *, *, #160, .T. ) ;
#195 = DIRECTION ( 'NONE',  ( 0.0000000000000000000, 0.0000000000000000000, -1.000000000000000000 ) ) ;
#196 = AXIS2_PLACEMENT_3D ( 'NONE', #131, #56, #41 ) ;
#197 = CARTESIAN_POINT ( 'NONE',  ( 0.9800000000000336220, 0.0000000000000000000, -4.900000000000008349 ) ) ;
#198 = CYLINDRICAL_SURFACE ( 'NONE', #210, 4.900000000000008349 ) ;
#199 =( NAMED_UNIT ( * ) PLANE_ANGLE_UNIT ( ) SI_UNIT ( $, .RADIAN. ) );
#200 = STYLED_ITEM ( 'NONE', ( #99 ), #161 ) ;
#201 = UNCERTAINTY_MEASURE_WITH_UNIT (LENGTH_MEASURE( 1.000000000000000082E-05 ), #58, 'distance_accuracy_value', 'NONE');
#202 = CARTESIAN_POINT ( 'NONE',  ( 0.0000000000000000000, 0.0000000000000000000, 0.0000000000000000000 ) ) ;
#203 = DIRECTION ( 'NONE',  ( 0.0000000000000000000, 0.0000000000000000000, 1.000000000000000000 ) ) ;
#204 = AXIS2_PLACEMENT_3D ( 'NONE', #52, #97, #11 ) ;
#205 =( NAMED_UNIT ( * ) SI_UNIT ( $, .STERADIAN. ) SOLID_ANGLE_UNIT ( ) );
#206 = CARTESIAN_POINT ( 'NONE',  ( 46.00000000000001421, 0.0000000000000000000, 0.0000000000000000000 ) ) ;
#207 =( GEOMETRIC_REPRESENTATION_CONTEXT ( 3 ) GLOBAL_UNCERTAINTY_ASSIGNED_CONTEXT ( ( #179 ) ) GLOBAL_UNIT_ASSIGNED_CONTEXT ( ( #185, #32, #205 ) ) REPRESENTATION_CONTEXT ( 'NONE', 'WORKASPACE' ) );
#208 = ORIENTED_EDGE ( 'NONE', *, *, #176, .F. ) ;
#209 = CARTESIAN_POINT ( 'NONE',  ( 46.00000000000001421, 0.0000000000000000000, 0.0000000000000000000 ) ) ;
#210 = AXIS2_PLACEMENT_3D ( 'NONE', #150, #188, #212 ) ;
#211 = DIRECTION ( 'NONE',  ( -1.000000000000000000, -0.0000000000000000000, -0.0000000000000000000 ) ) ;
#212 = DIRECTION ( 'NONE',  ( 0.0000000000000000000, 0.0000000000000000000, 1.000000000000000000 ) ) ;
#213 = CARTESIAN_POINT ( 'NONE',  ( 0.0000000000000000000, 0.0000000000000000000, 0.0000000000000000000 ) ) ;
ENDSEC;
END-ISO-10303-21;
