ISO-10303-21;
HEADER;
FILE_DESCRIPTION (( 'STEP AP214' ),
    '1' );
FILE_NAME ('03-1705.STEP',
    '2021-10-01T05:45:01',
    ( 'USER' ),
    ( '' ),
    'SwSTEP 2.0',
    'SolidWorks 2018',
    '' );
FILE_SCHEMA (( 'AUTOMOTIVE_DESIGN' ));
ENDSEC;

DATA;
#1 = FILL_AREA_STYLE_COLOUR ( '', #58 ) ;
#2 = CARTESIAN_POINT ( 'NONE',  ( 0.9900000000000063194, 0.0000000000000000000, 0.0000000000000000000 ) ) ;
#3 = ORIENTED_EDGE ( 'NONE', *, *, #154, .F. ) ;
#4 = ORIENTED_EDGE ( 'NONE', *, *, #48, .F. ) ;
#5 = MECHANICAL_DESIGN_GEOMETRIC_PRESENTATION_REPRESENTATION (  '', ( #59 ), #169 ) ;
#6 = CARTESIAN_POINT ( 'NONE',  ( 0.0000000000000000000, 0.0000000000000000000, 0.0000000000000000000 ) ) ;
#7 = DIRECTION ( 'NONE',  ( 0.0000000000000000000, 0.0000000000000000000, -1.000000000000000000 ) ) ;
#8 = ORIENTED_EDGE ( 'NONE', *, *, #166, .T. ) ;
#9 = DIRECTION ( 'NONE',  ( 0.0000000000000000000, 0.0000000000000000000, 1.000000000000000000 ) ) ;
#10 = DIRECTION ( 'NONE',  ( 0.0000000000000000000, 0.0000000000000000000, 1.000000000000000000 ) ) ;
#11 = UNCERTAINTY_MEASURE_WITH_UNIT (LENGTH_MEASURE( 1.000000000000000082E-05 ), #104, 'distance_accuracy_value', 'NONE');
#12 = EDGE_LOOP ( 'NONE', ( #46 ) ) ;
#13 = AXIS2_PLACEMENT_3D ( 'NONE', #82, #113, #93 ) ;
#14 = CONICAL_SURFACE ( 'NONE', #161, 3.960000000000005294, 0.7853981633974466137 ) ;
#15 = EDGE_LOOP ( 'NONE', ( #107 ) ) ;
#16 = SURFACE_SIDE_STYLE ('',( #41 ) ) ;
#17 = CARTESIAN_POINT ( 'NONE',  ( 0.9900000000000063194, 0.0000000000000000000, -4.950000000000008171 ) ) ;
#18 = CLOSED_SHELL ( 'NONE', ( #171, #111, #98, #212 ) ) ;
#19 = ADVANCED_BREP_SHAPE_REPRESENTATION ( '03-1705', ( #153, #183, #79 ), #101 ) ;
#20 = ADVANCED_FACE ( 'NONE', ( #23 ), #67, .T. ) ;
#21 = FILL_AREA_STYLE ('',( #185 ) ) ;
#22 = SURFACE_STYLE_USAGE ( .BOTH. , #99 ) ;
#23 = FACE_OUTER_BOUND ( 'NONE', #87, .T. ) ;
#24 = SURFACE_STYLE_FILL_AREA ( #63 ) ;
#25 = DIRECTION ( 'NONE',  ( 0.0000000000000000000, 0.0000000000000000000, -1.000000000000000000 ) ) ;
#26 = CARTESIAN_POINT ( 'NONE',  ( 130.9496428662531571, 0.0000000000000000000, 4.950000000000016165 ) ) ;
#27 = MECHANICAL_DESIGN_GEOMETRIC_PRESENTATION_REPRESENTATION (  '', ( #211 ), #52 ) ;
#28 = COLOUR_RGB ( '',1.000000000000000000, 1.000000000000000000, 0.0000000000000000000 ) ;
#29 =( NAMED_UNIT ( * ) SI_UNIT ( $, .STERADIAN. ) SOLID_ANGLE_UNIT ( ) );
#30 = DIRECTION ( 'NONE',  ( -1.000000000000000000, -0.0000000000000000000, -0.0000000000000000000 ) ) ;
#31 = AXIS2_PLACEMENT_3D ( 'NONE', #176, #198, #72 ) ;
#32 =( GEOMETRIC_REPRESENTATION_CONTEXT ( 3 ) GLOBAL_UNCERTAINTY_ASSIGNED_CONTEXT ( ( #175 ) ) GLOBAL_UNIT_ASSIGNED_CONTEXT ( ( #108, #168, #186 ) ) REPRESENTATION_CONTEXT ( 'NONE', 'WORKASPACE' ) );
#33 = PRESENTATION_STYLE_ASSIGNMENT (( #187 ) ) ;
#34 = SURFACE_STYLE_USAGE ( .BOTH. , #16 ) ;
#35 = ADVANCED_FACE ( 'NONE', ( #207 ), #179, .F. ) ;
#36 = STYLED_ITEM ( 'NONE', ( #204 ), #183 ) ;
#37 = CYLINDRICAL_SURFACE ( 'NONE', #122, 4.950000000000008171 ) ;
#38 = ORIENTED_EDGE ( 'NONE', *, *, #48, .T. ) ;
#39 = PRODUCT_DEFINITION_CONTEXT ( 'detailed design', #86, 'design' ) ;
#40 =( NAMED_UNIT ( * ) PLANE_ANGLE_UNIT ( ) SI_UNIT ( $, .RADIAN. ) );
#41 = SURFACE_STYLE_FILL_AREA ( #21 ) ;
#42 = MECHANICAL_DESIGN_GEOMETRIC_PRESENTATION_REPRESENTATION (  '', ( #36 ), #32 ) ;
#43 = CIRCLE ( 'NONE', #192, 4.950000000000016165 ) ;
#44 = CARTESIAN_POINT ( 'NONE',  ( 46.00000000000001421, 0.0000000000000000000, 0.0000000000000000000 ) ) ;
#45 = DIRECTION ( 'NONE',  ( 1.000000000000000000, 0.0000000000000000000, 0.0000000000000000000 ) ) ;
#46 = ORIENTED_EDGE ( 'NONE', *, *, #180, .T. ) ;
#47 =( NAMED_UNIT ( * ) PLANE_ANGLE_UNIT ( ) SI_UNIT ( $, .RADIAN. ) );
#48 = EDGE_CURVE ( 'NONE', #200, #200, #71, .T. ) ;
#49 = EDGE_LOOP ( 'NONE', ( #105 ) ) ;
#50 = VERTEX_POINT ( 'NONE', #17 ) ;
#51 = CLOSED_SHELL ( 'NONE', ( #35, #158, #20 ) ) ;
#52 =( GEOMETRIC_REPRESENTATION_CONTEXT ( 3 ) GLOBAL_UNCERTAINTY_ASSIGNED_CONTEXT ( ( #189 ) ) GLOBAL_UNIT_ASSIGNED_CONTEXT ( ( #181, #155, #125 ) ) REPRESENTATION_CONTEXT ( 'NONE', 'WORKASPACE' ) );
#53 = AXIS2_PLACEMENT_3D ( 'NONE', #195, #130, #25 ) ;
#54 = CARTESIAN_POINT ( 'NONE',  ( 46.00000000000001421, 0.0000000000000000000, -4.950000000000008171 ) ) ;
#55 = FACE_BOUND ( 'NONE', #68, .T. ) ;
#56 = PRESENTATION_LAYER_ASSIGNMENT (  '', '', ( #36 ) ) ;
#57 = FILL_AREA_STYLE ('',( #85 ) ) ;
#58 = COLOUR_RGB ( '',0.7921568627450980005, 0.8196078431372548767, 0.9333333333333333481 ) ;
#59 = STYLED_ITEM ( 'NONE', ( #33 ), #20 ) ;
#60 = FACE_OUTER_BOUND ( 'NONE', #15, .T. ) ;
#61 = PRODUCT_RELATED_PRODUCT_CATEGORY ( 'part', '', ( #109 ) ) ;
#62 = EDGE_LOOP ( 'NONE', ( #38 ) ) ;
#63 = FILL_AREA_STYLE ('',( #120 ) ) ;
#64 = DIRECTION ( 'NONE',  ( 0.0000000000000000000, 0.0000000000000000000, -1.000000000000000000 ) ) ;
#65 = CARTESIAN_POINT ( 'NONE',  ( 0.0000000000000000000, 0.0000000000000000000, 0.0000000000000000000 ) ) ;
#66 = CARTESIAN_POINT ( 'NONE',  ( 46.00000000000001421, 0.0000000000000000000, 0.0000000000000000000 ) ) ;
#67 = CONICAL_SURFACE ( 'NONE', #184, 2414.213562373069180, 1.178097245096168644 ) ;
#68 = EDGE_LOOP ( 'NONE', ( #75 ) ) ;
#69 = CARTESIAN_POINT ( 'NONE',  ( 46.00000000000001421, 0.0000000000000000000, 0.0000000000000000000 ) ) ;
#70 = MECHANICAL_DESIGN_GEOMETRIC_PRESENTATION_REPRESENTATION (  '', ( #128 ), #124 ) ;
#71 = CIRCLE ( 'NONE', #102, 4.950000000000008171 ) ;
#72 = DIRECTION ( 'NONE',  ( 0.0000000000000000000, 0.0000000000000000000, -1.000000000000000000 ) ) ;
#73 = SURFACE_STYLE_FILL_AREA ( #57 ) ;
#74 = PRESENTATION_STYLE_ASSIGNMENT (( #131 ) ) ;
#75 = ORIENTED_EDGE ( 'NONE', *, *, #174, .F. ) ;
#76 = SURFACE_STYLE_USAGE ( .BOTH. , #96 ) ;
#77 = VERTEX_POINT ( 'NONE', #135 ) ;
#78 = PRESENTATION_LAYER_ASSIGNMENT (  '', '', ( #59 ) ) ;
#79 = AXIS2_PLACEMENT_3D ( 'NONE', #146, #137, #152 ) ;
#80 = FACE_OUTER_BOUND ( 'NONE', #49, .T. ) ;
#81 = SURFACE_STYLE_FILL_AREA ( #94 ) ;
#82 = CARTESIAN_POINT ( 'NONE',  ( -3.031000827889698269E-16, 0.0000000000000000000, 0.0000000000000000000 ) ) ;
#83 = STYLED_ITEM ( 'NONE', ( #74 ), #158 ) ;
#84 = FACE_OUTER_BOUND ( 'NONE', #62, .T. ) ;
#85 = FILL_AREA_STYLE_COLOUR ( '', #148 ) ;
#86 = APPLICATION_CONTEXT ( 'automotive_design' ) ;
#87 = EDGE_LOOP ( 'NONE', ( #141 ) ) ;
#88 = PRESENTATION_STYLE_ASSIGNMENT (( #76 ) ) ;
#89 = PLANE ( 'NONE',  #31 ) ;
#90 = CARTESIAN_POINT ( 'NONE',  ( -867.0000000000000000, 0.0000000000000000000, 0.0000000000000000000 ) ) ;
#91 = AXIS2_PLACEMENT_3D ( 'NONE', #66, #151, #165 ) ;
#92 = FACE_OUTER_BOUND ( 'NONE', #213, .T. ) ;
#93 = DIRECTION ( 'NONE',  ( 0.0000000000000000000, 0.0000000000000000000, -1.000000000000000000 ) ) ;
#94 = FILL_AREA_STYLE ('',( #1 ) ) ;
#95 = CIRCLE ( 'NONE', #13, 3.960000000000005294 ) ;
#96 = SURFACE_SIDE_STYLE ('',( #129 ) ) ;
#97 = FACE_OUTER_BOUND ( 'NONE', #156, .T. ) ;
#98 = ADVANCED_FACE ( 'NONE', ( #60, #55 ), #14, .T. ) ;
#99 = SURFACE_SIDE_STYLE ('',( #81 ) ) ;
#100 = DIRECTION ( 'NONE',  ( 1.000000000000000000, 0.0000000000000000000, 0.0000000000000000000 ) ) ;
#101 =( GEOMETRIC_REPRESENTATION_CONTEXT ( 3 ) GLOBAL_UNCERTAINTY_ASSIGNED_CONTEXT ( ( #139 ) ) GLOBAL_UNIT_ASSIGNED_CONTEXT ( ( #201, #127, #147 ) ) REPRESENTATION_CONTEXT ( 'NONE', 'WORKASPACE' ) );
#102 = AXIS2_PLACEMENT_3D ( 'NONE', #44, #100, #103 ) ;
#103 = DIRECTION ( 'NONE',  ( 0.0000000000000000000, 0.0000000000000000000, -1.000000000000000000 ) ) ;
#104 =( LENGTH_UNIT ( ) NAMED_UNIT ( * ) SI_UNIT ( .MILLI., .METRE. ) );
#105 = ORIENTED_EDGE ( 'NONE', *, *, #174, .T. ) ;
#106 = UNCERTAINTY_MEASURE_WITH_UNIT (LENGTH_MEASURE( 1.000000000000000082E-05 ), #172, 'distance_accuracy_value', 'NONE');
#107 = ORIENTED_EDGE ( 'NONE', *, *, #166, .F. ) ;
#108 =( LENGTH_UNIT ( ) NAMED_UNIT ( * ) SI_UNIT ( .MILLI., .METRE. ) );
#109 = PRODUCT ( '03-1705', '03-1705', '', ( #123 ) ) ;
#110 = PRODUCT_DEFINITION ( 'UNKNOWN', '', #134, #39 ) ;
#111 = ADVANCED_FACE ( 'NONE', ( #80 ), #89, .F. ) ;
#112 = CIRCLE ( 'NONE', #53, 4.950000000000008171 ) ;
#113 = DIRECTION ( 'NONE',  ( -1.000000000000000000, -0.0000000000000000000, -0.0000000000000000000 ) ) ;
#114 = PRESENTATION_LAYER_ASSIGNMENT (  '', '', ( #128 ) ) ;
#115 = FACE_OUTER_BOUND ( 'NONE', #12, .T. ) ;
#116 = CARTESIAN_POINT ( 'NONE',  ( 130.9496428662531571, 0.0000000000000000000, 0.0000000000000000000 ) ) ;
#117 = AXIS2_PLACEMENT_3D ( 'NONE', #6, #144, #10 ) ;
#118 =( GEOMETRIC_REPRESENTATION_CONTEXT ( 3 ) GLOBAL_UNCERTAINTY_ASSIGNED_CONTEXT ( ( #106 ) ) GLOBAL_UNIT_ASSIGNED_CONTEXT ( ( #172, #202, #133 ) ) REPRESENTATION_CONTEXT ( 'NONE', 'WORKASPACE' ) );
#119 = DIRECTION ( 'NONE',  ( 0.0000000000000000000, 0.0000000000000000000, 1.000000000000000000 ) ) ;
#120 = FILL_AREA_STYLE_COLOUR ( '', #28 ) ;
#121 = UNCERTAINTY_MEASURE_WITH_UNIT (LENGTH_MEASURE( 1.000000000000000082E-05 ), #143, 'distance_accuracy_value', 'NONE');
#122 = AXIS2_PLACEMENT_3D ( 'NONE', #65, #196, #9 ) ;
#123 = PRODUCT_CONTEXT ( 'NONE', #157, 'mechanical' ) ;
#124 =( GEOMETRIC_REPRESENTATION_CONTEXT ( 3 ) GLOBAL_UNCERTAINTY_ASSIGNED_CONTEXT ( ( #121 ) ) GLOBAL_UNIT_ASSIGNED_CONTEXT ( ( #143, #40, #159 ) ) REPRESENTATION_CONTEXT ( 'NONE', 'WORKASPACE' ) );
#125 =( NAMED_UNIT ( * ) SI_UNIT ( $, .STERADIAN. ) SOLID_ANGLE_UNIT ( ) );
#126 = FILL_AREA_STYLE ('',( #209 ) ) ;
#127 =( NAMED_UNIT ( * ) PLANE_ANGLE_UNIT ( ) SI_UNIT ( $, .RADIAN. ) );
#128 = STYLED_ITEM ( 'NONE', ( #160 ), #153 ) ;
#129 = SURFACE_STYLE_FILL_AREA ( #126 ) ;
#130 = DIRECTION ( 'NONE',  ( 1.000000000000000000, 0.0000000000000000000, 0.0000000000000000000 ) ) ;
#131 = SURFACE_STYLE_USAGE ( .BOTH. , #142 ) ;
#132 = CIRCLE ( 'NONE', #206, 4.950000000000008171 ) ;
#133 =( NAMED_UNIT ( * ) SI_UNIT ( $, .STERADIAN. ) SOLID_ANGLE_UNIT ( ) );
#134 = PRODUCT_DEFINITION_FORMATION_WITH_SPECIFIED_SOURCE ( 'ANY', '', #109, .NOT_KNOWN. ) ;
#135 = CARTESIAN_POINT ( 'NONE',  ( -3.031000827889698269E-16, 0.0000000000000000000, -3.960000000000005294 ) ) ;
#136 = CYLINDRICAL_SURFACE ( 'NONE', #117, 4.950000000000008171 ) ;
#137 = DIRECTION ( 'NONE',  ( 0.0000000000000000000, 0.0000000000000000000, 1.000000000000000000 ) ) ;
#138 = PRODUCT_DEFINITION_SHAPE ( 'NONE', 'NONE',  #110 ) ;
#139 = UNCERTAINTY_MEASURE_WITH_UNIT (LENGTH_MEASURE( 1.000000000000000082E-05 ), #201, 'distance_accuracy_value', 'NONE');
#140 = EDGE_LOOP ( 'NONE', ( #4 ) ) ;
#141 = ORIENTED_EDGE ( 'NONE', *, *, #180, .F. ) ;
#142 = SURFACE_SIDE_STYLE ('',( #73 ) ) ;
#143 =( LENGTH_UNIT ( ) NAMED_UNIT ( * ) SI_UNIT ( .MILLI., .METRE. ) );
#144 = DIRECTION ( 'NONE',  ( -1.000000000000000000, -0.0000000000000000000, -0.0000000000000000000 ) ) ;
#145 = AXIS2_PLACEMENT_3D ( 'NONE', #69, #45, #150 ) ;
#146 = CARTESIAN_POINT ( 'NONE',  ( 0.0000000000000000000, 0.0000000000000000000, 0.0000000000000000000 ) ) ;
#147 =( NAMED_UNIT ( * ) SI_UNIT ( $, .STERADIAN. ) SOLID_ANGLE_UNIT ( ) );
#148 = COLOUR_RGB ( '',1.000000000000000000, 1.000000000000000000, 0.0000000000000000000 ) ;
#149 = DIRECTION ( 'NONE',  ( -1.000000000000000000, -0.0000000000000000000, -0.0000000000000000000 ) ) ;
#150 = DIRECTION ( 'NONE',  ( 0.0000000000000000000, 0.0000000000000000000, -1.000000000000000000 ) ) ;
#151 = DIRECTION ( 'NONE',  ( 1.000000000000000000, 0.0000000000000000000, 0.0000000000000000000 ) ) ;
#152 = DIRECTION ( 'NONE',  ( 1.000000000000000000, 0.0000000000000000000, 0.0000000000000000000 ) ) ;
#153 = MANIFOLD_SOLID_BREP ( 'ºÐÇÒ2[1]', #18 ) ;
#154 = EDGE_CURVE ( 'NONE', #190, #190, #112, .T. ) ;
#155 =( NAMED_UNIT ( * ) PLANE_ANGLE_UNIT ( ) SI_UNIT ( $, .RADIAN. ) );
#156 = EDGE_LOOP ( 'NONE', ( #193 ) ) ;
#157 = APPLICATION_CONTEXT ( 'automotive_design' ) ;
#158 = ADVANCED_FACE ( 'NONE', ( #84, #115 ), #37, .T. ) ;
#159 =( NAMED_UNIT ( * ) SI_UNIT ( $, .STERADIAN. ) SOLID_ANGLE_UNIT ( ) );
#160 = PRESENTATION_STYLE_ASSIGNMENT (( #22 ) ) ;
#161 = AXIS2_PLACEMENT_3D ( 'NONE', #163, #178, #7 ) ;
#162 = EDGE_LOOP ( 'NONE', ( #8 ) ) ;
#163 = CARTESIAN_POINT ( 'NONE',  ( -3.031000827889698269E-16, 0.0000000000000000000, 0.0000000000000000000 ) ) ;
#164 = SURFACE_SIDE_STYLE ('',( #24 ) ) ;
#165 = DIRECTION ( 'NONE',  ( 0.0000000000000000000, 0.0000000000000000000, -1.000000000000000000 ) ) ;
#166 = EDGE_CURVE ( 'NONE', #50, #50, #132, .T. ) ;
#167 = SHAPE_DEFINITION_REPRESENTATION ( #138, #19 ) ;
#168 =( NAMED_UNIT ( * ) PLANE_ANGLE_UNIT ( ) SI_UNIT ( $, .RADIAN. ) );
#169 =( GEOMETRIC_REPRESENTATION_CONTEXT ( 3 ) GLOBAL_UNCERTAINTY_ASSIGNED_CONTEXT ( ( #11 ) ) GLOBAL_UNIT_ASSIGNED_CONTEXT ( ( #104, #47, #29 ) ) REPRESENTATION_CONTEXT ( 'NONE', 'WORKASPACE' ) );
#170 = DIRECTION ( 'NONE',  ( 0.0000000000000000000, 0.0000000000000000000, 1.000000000000000000 ) ) ;
#171 = ADVANCED_FACE ( 'NONE', ( #177, #92 ), #136, .T. ) ;
#172 =( LENGTH_UNIT ( ) NAMED_UNIT ( * ) SI_UNIT ( .MILLI., .METRE. ) );
#173 = COLOUR_RGB ( '',0.7921568627450980005, 0.8196078431372548767, 0.9333333333333333481 ) ;
#174 = EDGE_CURVE ( 'NONE', #77, #77, #95, .T. ) ;
#175 = UNCERTAINTY_MEASURE_WITH_UNIT (LENGTH_MEASURE( 1.000000000000000082E-05 ), #108, 'distance_accuracy_value', 'NONE');
#176 = CARTESIAN_POINT ( 'NONE',  ( -3.031000827889698269E-16, 4.949999999999999289, 0.0000000000000000000 ) ) ;
#177 = FACE_OUTER_BOUND ( 'NONE', #162, .T. ) ;
#178 = DIRECTION ( 'NONE',  ( 1.000000000000000000, 0.0000000000000000000, 0.0000000000000000000 ) ) ;
#179 = PLANE ( 'NONE',  #145 ) ;
#180 = EDGE_CURVE ( 'NONE', #194, #194, #43, .T. ) ;
#181 =( LENGTH_UNIT ( ) NAMED_UNIT ( * ) SI_UNIT ( .MILLI., .METRE. ) );
#182 = MECHANICAL_DESIGN_GEOMETRIC_PRESENTATION_REPRESENTATION (  '', ( #83 ), #118 ) ;
#183 = MANIFOLD_SOLID_BREP ( 'ºÐÇÒ2[2]', #51 ) ;
#184 = AXIS2_PLACEMENT_3D ( 'NONE', #90, #30, #119 ) ;
#185 = FILL_AREA_STYLE_COLOUR ( '', #210 ) ;
#186 =( NAMED_UNIT ( * ) SI_UNIT ( $, .STERADIAN. ) SOLID_ANGLE_UNIT ( ) );
#187 = SURFACE_STYLE_USAGE ( .BOTH. , #164 ) ;
#188 = DIRECTION ( 'NONE',  ( 1.000000000000000000, 0.0000000000000000000, 0.0000000000000000000 ) ) ;
#189 = UNCERTAINTY_MEASURE_WITH_UNIT (LENGTH_MEASURE( 1.000000000000000082E-05 ), #181, 'distance_accuracy_value', 'NONE');
#190 = VERTEX_POINT ( 'NONE', #191 ) ;
#191 = CARTESIAN_POINT ( 'NONE',  ( 46.00000000000001421, 0.0000000000000000000, -4.950000000000008171 ) ) ;
#192 = AXIS2_PLACEMENT_3D ( 'NONE', #116, #149, #170 ) ;
#193 = ORIENTED_EDGE ( 'NONE', *, *, #154, .T. ) ;
#194 = VERTEX_POINT ( 'NONE', #26 ) ;
#195 = CARTESIAN_POINT ( 'NONE',  ( 46.00000000000001421, 0.0000000000000000000, 0.0000000000000000000 ) ) ;
#196 = DIRECTION ( 'NONE',  ( -1.000000000000000000, -0.0000000000000000000, -0.0000000000000000000 ) ) ;
#197 = APPLICATION_PROTOCOL_DEFINITION ( 'draft international standard', 'automotive_design', 1998, #157 ) ;
#198 = DIRECTION ( 'NONE',  ( 1.000000000000000000, 0.0000000000000000000, 0.0000000000000000000 ) ) ;
#199 = PRESENTATION_LAYER_ASSIGNMENT (  '', '', ( #211 ) ) ;
#200 = VERTEX_POINT ( 'NONE', #54 ) ;
#201 =( LENGTH_UNIT ( ) NAMED_UNIT ( * ) SI_UNIT ( .MILLI., .METRE. ) );
#202 =( NAMED_UNIT ( * ) PLANE_ANGLE_UNIT ( ) SI_UNIT ( $, .RADIAN. ) );
#203 = PRESENTATION_LAYER_ASSIGNMENT (  '', '', ( #83 ) ) ;
#204 = PRESENTATION_STYLE_ASSIGNMENT (( #34 ) ) ;
#205 = PLANE ( 'NONE',  #91 ) ;
#206 = AXIS2_PLACEMENT_3D ( 'NONE', #2, #188, #64 ) ;
#207 = FACE_OUTER_BOUND ( 'NONE', #140, .T. ) ;
#208 = APPLICATION_PROTOCOL_DEFINITION ( 'draft international standard', 'automotive_design', 1998, #86 ) ;
#209 = FILL_AREA_STYLE_COLOUR ( '', #173 ) ;
#210 = COLOUR_RGB ( '',0.7921568627450980005, 0.8196078431372548767, 0.9333333333333333481 ) ;
#211 = STYLED_ITEM ( 'NONE', ( #88 ), #19 ) ;
#212 = ADVANCED_FACE ( 'NONE', ( #97 ), #205, .T. ) ;
#213 = EDGE_LOOP ( 'NONE', ( #3 ) ) ;
ENDSEC;
END-ISO-10303-21;
