ISO-10303-21;
HEADER;
FILE_DESCRIPTION (( 'STEP AP214' ),
    '1' );
FILE_NAME ('03-1706.STEP',
    '2021-10-01T05:45:20',
    ( 'USER' ),
    ( '' ),
    'SwSTEP 2.0',
    'SolidWorks 2018',
    '' );
FILE_SCHEMA (( 'AUTOMOTIVE_DESIGN' ));
ENDSEC;

DATA;
#1 = FILL_AREA_STYLE ('',( #41 ) ) ;
#2 = AXIS2_PLACEMENT_3D ( 'NONE', #70, #75, #82 ) ;
#3 = EDGE_LOOP ( 'NONE', ( #104 ) ) ;
#4 = SURFACE_STYLE_FILL_AREA ( #34 ) ;
#5 = CLOSED_SHELL ( 'NONE', ( #62, #146, #154, #131 ) ) ;
#6 = SURFACE_SIDE_STYLE ('',( #46 ) ) ;
#7 = EDGE_LOOP ( 'NONE', ( #172 ) ) ;
#8 = SURFACE_STYLE_USAGE ( .BOTH. , #6 ) ;
#9 = SHAPE_DEFINITION_REPRESENTATION ( #157, #160 ) ;
#10 =( LENGTH_UNIT ( ) NAMED_UNIT ( * ) SI_UNIT ( .MILLI., .METRE. ) );
#11 = UNCERTAINTY_MEASURE_WITH_UNIT (LENGTH_MEASURE( 1.000000000000000082E-05 ), #67, 'distance_accuracy_value', 'NONE');
#12 = ORIENTED_EDGE ( 'NONE', *, *, #185, .F. ) ;
#13 = VERTEX_POINT ( 'NONE', #58 ) ;
#14 = DIRECTION ( 'NONE',  ( 0.0000000000000000000, 0.0000000000000000000, 1.000000000000000000 ) ) ;
#15 =( NAMED_UNIT ( * ) PLANE_ANGLE_UNIT ( ) SI_UNIT ( $, .RADIAN. ) );
#16 = DIRECTION ( 'NONE',  ( 1.000000000000000000, 0.0000000000000000000, 0.0000000000000000000 ) ) ;
#17 = COLOUR_RGB ( '',0.7921568627450980005, 0.8196078431372548767, 0.9333333333333333481 ) ;
#18 = STYLED_ITEM ( 'NONE', ( #118 ), #200 ) ;
#19 = ORIENTED_EDGE ( 'NONE', *, *, #201, .T. ) ;
#20 = APPLICATION_PROTOCOL_DEFINITION ( 'draft international standard', 'automotive_design', 1998, #197 ) ;
#21 = DIRECTION ( 'NONE',  ( 0.0000000000000000000, 0.0000000000000000000, -1.000000000000000000 ) ) ;
#22 = UNCERTAINTY_MEASURE_WITH_UNIT (LENGTH_MEASURE( 1.000000000000000082E-05 ), #54, 'distance_accuracy_value', 'NONE');
#23 = VERTEX_POINT ( 'NONE', #135 ) ;
#24 = SURFACE_STYLE_USAGE ( .BOTH. , #39 ) ;
#25 = CARTESIAN_POINT ( 'NONE',  ( 130.9289321881344961, 0.0000000000000000000, 0.0000000000000000000 ) ) ;
#26 = DIRECTION ( 'NONE',  ( -1.000000000000000000, -0.0000000000000000000, -0.0000000000000000000 ) ) ;
#27 = MECHANICAL_DESIGN_GEOMETRIC_PRESENTATION_REPRESENTATION (  '', ( #99 ), #191 ) ;
#28 = DIRECTION ( 'NONE',  ( 1.000000000000000000, 0.0000000000000000000, 0.0000000000000000000 ) ) ;
#29 = DIRECTION ( 'NONE',  ( 1.000000000000000000, 0.0000000000000000000, 0.0000000000000000000 ) ) ;
#30 = EDGE_LOOP ( 'NONE', ( #19 ) ) ;
#31 = EDGE_LOOP ( 'NONE', ( #12 ) ) ;
#32 = CARTESIAN_POINT ( 'NONE',  ( -3.061616997868382155E-16, 0.0000000000000000000, 0.0000000000000000000 ) ) ;
#33 =( NAMED_UNIT ( * ) PLANE_ANGLE_UNIT ( ) SI_UNIT ( $, .RADIAN. ) );
#34 = FILL_AREA_STYLE ('',( #127 ) ) ;
#35 = ORIENTED_EDGE ( 'NONE', *, *, #79, .T. ) ;
#36 =( NAMED_UNIT ( * ) SI_UNIT ( $, .STERADIAN. ) SOLID_ANGLE_UNIT ( ) );
#37 = PRODUCT_CONTEXT ( 'NONE', #197, 'mechanical' ) ;
#38 = PRESENTATION_LAYER_ASSIGNMENT (  '', '', ( #48 ) ) ;
#39 = SURFACE_SIDE_STYLE ('',( #105 ) ) ;
#40 = SURFACE_STYLE_USAGE ( .BOTH. , #125 ) ;
#41 = FILL_AREA_STYLE_COLOUR ( '', #17 ) ;
#42 = ADVANCED_FACE ( 'NONE', ( #78 ), #55, .T. ) ;
#43 = DIRECTION ( 'NONE',  ( 0.0000000000000000000, 0.0000000000000000000, -1.000000000000000000 ) ) ;
#44 = MANIFOLD_SOLID_BREP ( 'ºÐÇÒ2[2]', #100 ) ;
#45 =( GEOMETRIC_REPRESENTATION_CONTEXT ( 3 ) GLOBAL_UNCERTAINTY_ASSIGNED_CONTEXT ( ( #22 ) ) GLOBAL_UNIT_ASSIGNED_CONTEXT ( ( #54, #203, #76 ) ) REPRESENTATION_CONTEXT ( 'NONE', 'WORKASPACE' ) );
#46 = SURFACE_STYLE_FILL_AREA ( #141 ) ;
#47 = PRODUCT_DEFINITION_CONTEXT ( 'detailed design', #107, 'design' ) ;
#48 = STYLED_ITEM ( 'NONE', ( #111 ), #160 ) ;
#49 = DIRECTION ( 'NONE',  ( 0.0000000000000000000, 0.0000000000000000000, 1.000000000000000000 ) ) ;
#50 = DIRECTION ( 'NONE',  ( 1.000000000000000000, 0.0000000000000000000, 0.0000000000000000000 ) ) ;
#51 = EDGE_LOOP ( 'NONE', ( #80 ) ) ;
#52 = ORIENTED_EDGE ( 'NONE', *, *, #175, .T. ) ;
#53 = AXIS2_PLACEMENT_3D ( 'NONE', #183, #202, #209 ) ;
#54 =( LENGTH_UNIT ( ) NAMED_UNIT ( * ) SI_UNIT ( .MILLI., .METRE. ) );
#55 = CONICAL_SURFACE ( 'NONE', #208, 2414.213562373071909, 1.178097245096169088 ) ;
#56 = ORIENTED_EDGE ( 'NONE', *, *, #194, .T. ) ;
#57 = FACE_OUTER_BOUND ( 'NONE', #103, .T. ) ;
#58 = CARTESIAN_POINT ( 'NONE',  ( 130.9289321881344961, 0.0000000000000000000, 5.000000000000015987 ) ) ;
#59 =( GEOMETRIC_REPRESENTATION_CONTEXT ( 3 ) GLOBAL_UNCERTAINTY_ASSIGNED_CONTEXT ( ( #188 ) ) GLOBAL_UNIT_ASSIGNED_CONTEXT ( ( #98, #102, #116 ) ) REPRESENTATION_CONTEXT ( 'NONE', 'WORKASPACE' ) );
#60 = FACE_OUTER_BOUND ( 'NONE', #184, .T. ) ;
#61 = FACE_OUTER_BOUND ( 'NONE', #30, .T. ) ;
#62 = ADVANCED_FACE ( 'NONE', ( #61, #85 ), #180, .T. ) ;
#63 = ORIENTED_EDGE ( 'NONE', *, *, #185, .T. ) ;
#64 = CARTESIAN_POINT ( 'NONE',  ( 46.00000000000001421, 0.0000000000000000000, -5.000000000000007994 ) ) ;
#65 = MECHANICAL_DESIGN_GEOMETRIC_PRESENTATION_REPRESENTATION (  '', ( #164 ), #213 ) ;
#66 = FACE_OUTER_BOUND ( 'NONE', #3, .T. ) ;
#67 =( LENGTH_UNIT ( ) NAMED_UNIT ( * ) SI_UNIT ( .MILLI., .METRE. ) );
#68 = APPLICATION_PROTOCOL_DEFINITION ( 'draft international standard', 'automotive_design', 1998, #107 ) ;
#69 = STYLED_ITEM ( 'NONE', ( #186 ), #44 ) ;
#70 = CARTESIAN_POINT ( 'NONE',  ( 46.00000000000001421, 0.0000000000000000000, 0.0000000000000000000 ) ) ;
#71 = SURFACE_SIDE_STYLE ('',( #73 ) ) ;
#72 = MECHANICAL_DESIGN_GEOMETRIC_PRESENTATION_REPRESENTATION (  '', ( #18 ), #59 ) ;
#73 = SURFACE_STYLE_FILL_AREA ( #121 ) ;
#74 = CARTESIAN_POINT ( 'NONE',  ( 46.00000000000001421, 0.0000000000000000000, 0.0000000000000000000 ) ) ;
#75 = DIRECTION ( 'NONE',  ( 1.000000000000000000, 0.0000000000000000000, 0.0000000000000000000 ) ) ;
#76 =( NAMED_UNIT ( * ) SI_UNIT ( $, .STERADIAN. ) SOLID_ANGLE_UNIT ( ) );
#77 = PLANE ( 'NONE',  #87 ) ;
#78 = FACE_OUTER_BOUND ( 'NONE', #7, .T. ) ;
#79 = EDGE_CURVE ( 'NONE', #13, #13, #109, .T. ) ;
#80 = ORIENTED_EDGE ( 'NONE', *, *, #194, .F. ) ;
#81 = FACE_BOUND ( 'NONE', #51, .T. ) ;
#82 = DIRECTION ( 'NONE',  ( 0.0000000000000000000, 0.0000000000000000000, -1.000000000000000000 ) ) ;
#83 = MECHANICAL_DESIGN_GEOMETRIC_PRESENTATION_REPRESENTATION (  '', ( #48 ), #143 ) ;
#84 = PRODUCT ( '03-1706', '03-1706', '', ( #37 ) ) ;
#85 = FACE_OUTER_BOUND ( 'NONE', #31, .T. ) ;
#86 = COLOUR_RGB ( '',0.7921568627450980005, 0.8196078431372548767, 0.9333333333333333481 ) ;
#87 = AXIS2_PLACEMENT_3D ( 'NONE', #190, #28, #43 ) ;
#88 = DIRECTION ( 'NONE',  ( 1.000000000000000000, 0.0000000000000000000, 0.0000000000000000000 ) ) ;
#89 = SURFACE_STYLE_USAGE ( .BOTH. , #71 ) ;
#90 = DIRECTION ( 'NONE',  ( 1.000000000000000000, 0.0000000000000000000, 0.0000000000000000000 ) ) ;
#91 = ORIENTED_EDGE ( 'NONE', *, *, #175, .F. ) ;
#92 = PRESENTATION_LAYER_ASSIGNMENT (  '', '', ( #18 ) ) ;
#93 = FILL_AREA_STYLE ('',( #187 ) ) ;
#94 = CARTESIAN_POINT ( 'NONE',  ( 46.00000000000001421, 0.0000000000000000000, 0.0000000000000000000 ) ) ;
#95 = DIRECTION ( 'NONE',  ( 0.0000000000000000000, 0.0000000000000000000, -1.000000000000000000 ) ) ;
#96 = PLANE ( 'NONE',  #151 ) ;
#97 = EDGE_LOOP ( 'NONE', ( #35 ) ) ;
#98 =( LENGTH_UNIT ( ) NAMED_UNIT ( * ) SI_UNIT ( .MILLI., .METRE. ) );
#99 = STYLED_ITEM ( 'NONE', ( #161 ), #42 ) ;
#100 = CLOSED_SHELL ( 'NONE', ( #189, #200, #42 ) ) ;
#101 = PRODUCT_RELATED_PRODUCT_CATEGORY ( 'part', '', ( #84 ) ) ;
#102 =( NAMED_UNIT ( * ) PLANE_ANGLE_UNIT ( ) SI_UNIT ( $, .RADIAN. ) );
#103 = EDGE_LOOP ( 'NONE', ( #63 ) ) ;
#104 = ORIENTED_EDGE ( 'NONE', *, *, #201, .F. ) ;
#105 = SURFACE_STYLE_FILL_AREA ( #1 ) ;
#106 = DIRECTION ( 'NONE',  ( 0.0000000000000000000, 0.0000000000000000000, -1.000000000000000000 ) ) ;
#107 = APPLICATION_CONTEXT ( 'automotive_design' ) ;
#108 = COLOUR_RGB ( '',0.7921568627450980005, 0.8196078431372548767, 0.9333333333333333481 ) ;
#109 = CIRCLE ( 'NONE', #158, 5.000000000000015987 ) ;
#110 = CIRCLE ( 'NONE', #123, 5.000000000000007994 ) ;
#111 = PRESENTATION_STYLE_ASSIGNMENT (( #8 ) ) ;
#112 = CARTESIAN_POINT ( 'NONE',  ( 46.00000000000001421, 0.0000000000000000000, 0.0000000000000000000 ) ) ;
#113 = DIRECTION ( 'NONE',  ( -1.000000000000000000, -0.0000000000000000000, -0.0000000000000000000 ) ) ;
#114 = PRESENTATION_LAYER_ASSIGNMENT (  '', '', ( #99 ) ) ;
#115 = AXIS2_PLACEMENT_3D ( 'NONE', #163, #206, #210 ) ;
#116 =( NAMED_UNIT ( * ) SI_UNIT ( $, .STERADIAN. ) SOLID_ANGLE_UNIT ( ) );
#117 = SURFACE_SIDE_STYLE ('',( #181 ) ) ;
#118 = PRESENTATION_STYLE_ASSIGNMENT (( #89 ) ) ;
#119 = FILL_AREA_STYLE_COLOUR ( '', #204 ) ;
#120 = DIRECTION ( 'NONE',  ( 0.0000000000000000000, 0.0000000000000000000, -1.000000000000000000 ) ) ;
#121 = FILL_AREA_STYLE ('',( #119 ) ) ;
#122 = CARTESIAN_POINT ( 'NONE',  ( -867.0000000000000000, 0.0000000000000000000, 0.0000000000000000000 ) ) ;
#123 = AXIS2_PLACEMENT_3D ( 'NONE', #74, #90, #95 ) ;
#124 = CARTESIAN_POINT ( 'NONE',  ( -3.061616997868382155E-16, 0.0000000000000000000, 0.0000000000000000000 ) ) ;
#125 = SURFACE_SIDE_STYLE ('',( #4 ) ) ;
#126 = DIRECTION ( 'NONE',  ( -1.000000000000000000, -0.0000000000000000000, -0.0000000000000000000 ) ) ;
#127 = FILL_AREA_STYLE_COLOUR ( '', #165 ) ;
#128 =( LENGTH_UNIT ( ) NAMED_UNIT ( * ) SI_UNIT ( .MILLI., .METRE. ) );
#129 = UNCERTAINTY_MEASURE_WITH_UNIT (LENGTH_MEASURE( 1.000000000000000082E-05 ), #132, 'distance_accuracy_value', 'NONE');
#130 = DIRECTION ( 'NONE',  ( 0.0000000000000000000, 0.0000000000000000000, 1.000000000000000000 ) ) ;
#131 = ADVANCED_FACE ( 'NONE', ( #57 ), #96, .T. ) ;
#132 =( LENGTH_UNIT ( ) NAMED_UNIT ( * ) SI_UNIT ( .MILLI., .METRE. ) );
#133 = AXIS2_PLACEMENT_3D ( 'NONE', #156, #113, #49 ) ;
#134 = CIRCLE ( 'NONE', #137, 5.000000000000007994 ) ;
#135 = CARTESIAN_POINT ( 'NONE',  ( 46.00000000000001421, 0.0000000000000000000, -5.000000000000007994 ) ) ;
#136 = DIRECTION ( 'NONE',  ( 0.0000000000000000000, 0.0000000000000000000, -1.000000000000000000 ) ) ;
#137 = AXIS2_PLACEMENT_3D ( 'NONE', #205, #50, #120 ) ;
#138 = PRESENTATION_LAYER_ASSIGNMENT (  '', '', ( #69 ) ) ;
#139 =( NAMED_UNIT ( * ) SI_UNIT ( $, .STERADIAN. ) SOLID_ANGLE_UNIT ( ) );
#140 = EDGE_LOOP ( 'NONE', ( #91 ) ) ;
#141 = FILL_AREA_STYLE ('',( #207 ) ) ;
#142 = VERTEX_POINT ( 'NONE', #177 ) ;
#143 =( GEOMETRIC_REPRESENTATION_CONTEXT ( 3 ) GLOBAL_UNCERTAINTY_ASSIGNED_CONTEXT ( ( #199 ) ) GLOBAL_UNIT_ASSIGNED_CONTEXT ( ( #10, #33, #36 ) ) REPRESENTATION_CONTEXT ( 'NONE', 'WORKASPACE' ) );
#144 = UNCERTAINTY_MEASURE_WITH_UNIT (LENGTH_MEASURE( 1.000000000000000082E-05 ), #128, 'distance_accuracy_value', 'NONE');
#145 = VERTEX_POINT ( 'NONE', #159 ) ;
#146 = ADVANCED_FACE ( 'NONE', ( #147 ), #77, .F. ) ;
#147 = FACE_OUTER_BOUND ( 'NONE', #173, .T. ) ;
#148 = PRODUCT_DEFINITION ( 'UNKNOWN', '', #162, #47 ) ;
#149 = PRESENTATION_STYLE_ASSIGNMENT (( #24 ) ) ;
#150 = DIRECTION ( 'NONE',  ( -1.000000000000000000, -0.0000000000000000000, -0.0000000000000000000 ) ) ;
#151 = AXIS2_PLACEMENT_3D ( 'NONE', #94, #16, #21 ) ;
#152 =( NAMED_UNIT ( * ) SI_UNIT ( $, .STERADIAN. ) SOLID_ANGLE_UNIT ( ) );
#153 = AXIS2_PLACEMENT_3D ( 'NONE', #124, #150, #193 ) ;
#154 = ADVANCED_FACE ( 'NONE', ( #66, #81 ), #178, .T. ) ;
#155 = AXIS2_PLACEMENT_3D ( 'NONE', #32, #29, #136 ) ;
#156 = CARTESIAN_POINT ( 'NONE',  ( 0.0000000000000000000, 0.0000000000000000000, 0.0000000000000000000 ) ) ;
#157 = PRODUCT_DEFINITION_SHAPE ( 'NONE', 'NONE',  #148 ) ;
#158 = AXIS2_PLACEMENT_3D ( 'NONE', #25, #26, #14 ) ;
#159 = CARTESIAN_POINT ( 'NONE',  ( 1.000000000000035305, 0.0000000000000000000, -5.000000000000007994 ) ) ;
#160 = ADVANCED_BREP_SHAPE_REPRESENTATION ( '03-1706', ( #196, #44, #115 ), #45 ) ;
#161 = PRESENTATION_STYLE_ASSIGNMENT (( #40 ) ) ;
#162 = PRODUCT_DEFINITION_FORMATION_WITH_SPECIFIED_SOURCE ( 'ANY', '', #84, .NOT_KNOWN. ) ;
#163 = CARTESIAN_POINT ( 'NONE',  ( 0.0000000000000000000, 0.0000000000000000000, 0.0000000000000000000 ) ) ;
#164 = STYLED_ITEM ( 'NONE', ( #149 ), #196 ) ;
#165 = COLOUR_RGB ( '',1.000000000000000000, 1.000000000000000000, 0.0000000000000000000 ) ;
#166 = CIRCLE ( 'NONE', #153, 3.999999999999989786 ) ;
#167 =( NAMED_UNIT ( * ) SI_UNIT ( $, .STERADIAN. ) SOLID_ANGLE_UNIT ( ) );
#168 = VERTEX_POINT ( 'NONE', #64 ) ;
#169 = MECHANICAL_DESIGN_GEOMETRIC_PRESENTATION_REPRESENTATION (  '', ( #69 ), #179 ) ;
#170 =( NAMED_UNIT ( * ) PLANE_ANGLE_UNIT ( ) SI_UNIT ( $, .RADIAN. ) );
#171 = CIRCLE ( 'NONE', #2, 5.000000000000007994 ) ;
#172 = ORIENTED_EDGE ( 'NONE', *, *, #79, .F. ) ;
#173 = EDGE_LOOP ( 'NONE', ( #56 ) ) ;
#174 = FACE_OUTER_BOUND ( 'NONE', #97, .T. ) ;
#175 = EDGE_CURVE ( 'NONE', #23, #23, #110, .T. ) ;
#176 = FACE_OUTER_BOUND ( 'NONE', #140, .T. ) ;
#177 = CARTESIAN_POINT ( 'NONE',  ( -3.061616997868382155E-16, 0.0000000000000000000, -3.999999999999989786 ) ) ;
#178 = CONICAL_SURFACE ( 'NONE', #155, 3.999999999999989786, 0.7853981633974396193 ) ;
#179 =( GEOMETRIC_REPRESENTATION_CONTEXT ( 3 ) GLOBAL_UNCERTAINTY_ASSIGNED_CONTEXT ( ( #129 ) ) GLOBAL_UNIT_ASSIGNED_CONTEXT ( ( #132, #195, #167 ) ) REPRESENTATION_CONTEXT ( 'NONE', 'WORKASPACE' ) );
#180 = CYLINDRICAL_SURFACE ( 'NONE', #53, 5.000000000000007994 ) ;
#181 = SURFACE_STYLE_FILL_AREA ( #93 ) ;
#182 = PRESENTATION_LAYER_ASSIGNMENT (  '', '', ( #164 ) ) ;
#183 = CARTESIAN_POINT ( 'NONE',  ( 0.0000000000000000000, 0.0000000000000000000, 0.0000000000000000000 ) ) ;
#184 = EDGE_LOOP ( 'NONE', ( #52 ) ) ;
#185 = EDGE_CURVE ( 'NONE', #168, #168, #171, .T. ) ;
#186 = PRESENTATION_STYLE_ASSIGNMENT (( #192 ) ) ;
#187 = FILL_AREA_STYLE_COLOUR ( '', #108 ) ;
#188 = UNCERTAINTY_MEASURE_WITH_UNIT (LENGTH_MEASURE( 1.000000000000000082E-05 ), #98, 'distance_accuracy_value', 'NONE');
#189 = ADVANCED_FACE ( 'NONE', ( #176 ), #212, .F. ) ;
#190 = CARTESIAN_POINT ( 'NONE',  ( -3.061616997868382155E-16, 4.999999999999999112, 0.0000000000000000000 ) ) ;
#191 =( GEOMETRIC_REPRESENTATION_CONTEXT ( 3 ) GLOBAL_UNCERTAINTY_ASSIGNED_CONTEXT ( ( #144 ) ) GLOBAL_UNIT_ASSIGNED_CONTEXT ( ( #128, #15, #152 ) ) REPRESENTATION_CONTEXT ( 'NONE', 'WORKASPACE' ) );
#192 = SURFACE_STYLE_USAGE ( .BOTH. , #117 ) ;
#193 = DIRECTION ( 'NONE',  ( 0.0000000000000000000, 0.0000000000000000000, -1.000000000000000000 ) ) ;
#194 = EDGE_CURVE ( 'NONE', #142, #142, #166, .T. ) ;
#195 =( NAMED_UNIT ( * ) PLANE_ANGLE_UNIT ( ) SI_UNIT ( $, .RADIAN. ) );
#196 = MANIFOLD_SOLID_BREP ( 'ºÐÇÒ2[1]', #5 ) ;
#197 = APPLICATION_CONTEXT ( 'automotive_design' ) ;
#198 = CYLINDRICAL_SURFACE ( 'NONE', #133, 5.000000000000007994 ) ;
#199 = UNCERTAINTY_MEASURE_WITH_UNIT (LENGTH_MEASURE( 1.000000000000000082E-05 ), #10, 'distance_accuracy_value', 'NONE');
#200 = ADVANCED_FACE ( 'NONE', ( #60, #174 ), #198, .T. ) ;
#201 = EDGE_CURVE ( 'NONE', #145, #145, #134, .T. ) ;
#202 = DIRECTION ( 'NONE',  ( -1.000000000000000000, -0.0000000000000000000, -0.0000000000000000000 ) ) ;
#203 =( NAMED_UNIT ( * ) PLANE_ANGLE_UNIT ( ) SI_UNIT ( $, .RADIAN. ) );
#204 = COLOUR_RGB ( '',1.000000000000000000, 1.000000000000000000, 0.0000000000000000000 ) ;
#205 = CARTESIAN_POINT ( 'NONE',  ( 1.000000000000035305, 0.0000000000000000000, 0.0000000000000000000 ) ) ;
#206 = DIRECTION ( 'NONE',  ( 0.0000000000000000000, 0.0000000000000000000, 1.000000000000000000 ) ) ;
#207 = FILL_AREA_STYLE_COLOUR ( '', #86 ) ;
#208 = AXIS2_PLACEMENT_3D ( 'NONE', #122, #126, #130 ) ;
#209 = DIRECTION ( 'NONE',  ( 0.0000000000000000000, 0.0000000000000000000, 1.000000000000000000 ) ) ;
#210 = DIRECTION ( 'NONE',  ( 1.000000000000000000, 0.0000000000000000000, 0.0000000000000000000 ) ) ;
#211 = AXIS2_PLACEMENT_3D ( 'NONE', #112, #88, #106 ) ;
#212 = PLANE ( 'NONE',  #211 ) ;
#213 =( GEOMETRIC_REPRESENTATION_CONTEXT ( 3 ) GLOBAL_UNCERTAINTY_ASSIGNED_CONTEXT ( ( #11 ) ) GLOBAL_UNIT_ASSIGNED_CONTEXT ( ( #67, #170, #139 ) ) REPRESENTATION_CONTEXT ( 'NONE', 'WORKASPACE' ) );
ENDSEC;
END-ISO-10303-21;
