ISO-10303-21;
HEADER;
FILE_DESCRIPTION (( 'STEP AP214' ),
    '1' );
FILE_NAME ('03-1708.STEP',
    '2021-10-01T05:45:57',
    ( 'USER' ),
    ( '' ),
    'SwSTEP 2.0',
    'SolidWorks 2018',
    '' );
FILE_SCHEMA (( 'AUTOMOTIVE_DESIGN' ));
ENDSEC;

DATA;
#1 = CARTESIAN_POINT ( 'NONE',  ( 130.8875108318972025, 0.0000000000000000000, 0.0000000000000000000 ) ) ;
#2 = MECHANICAL_DESIGN_GEOMETRIC_PRESENTATION_REPRESENTATION (  '', ( #101 ), #75 ) ;
#3 = CARTESIAN_POINT ( 'NONE',  ( 46.00000000000001421, 0.0000000000000000000, 0.0000000000000000000 ) ) ;
#4 = SURFACE_STYLE_USAGE ( .BOTH. , #11 ) ;
#5 = EDGE_CURVE ( 'NONE', #148, #148, #44, .T. ) ;
#6 = FILL_AREA_STYLE_COLOUR ( '', #102 ) ;
#7 = PRODUCT_CONTEXT ( 'NONE', #46, 'mechanical' ) ;
#8 = SHAPE_DEFINITION_REPRESENTATION ( #105, #50 ) ;
#9 = DIRECTION ( 'NONE',  ( 0.0000000000000000000, 0.0000000000000000000, -1.000000000000000000 ) ) ;
#10 = APPLICATION_CONTEXT ( 'automotive_design' ) ;
#11 = SURFACE_SIDE_STYLE ('',( #196 ) ) ;
#12 = APPLICATION_PROTOCOL_DEFINITION ( 'draft international standard', 'automotive_design', 1998, #10 ) ;
#13 = PRODUCT_DEFINITION_CONTEXT ( 'detailed design', #10, 'design' ) ;
#14 = DIRECTION ( 'NONE',  ( 1.000000000000000000, 0.0000000000000000000, 0.0000000000000000000 ) ) ;
#15 = VERTEX_POINT ( 'NONE', #141 ) ;
#16 = PRESENTATION_STYLE_ASSIGNMENT (( #20 ) ) ;
#17 = DIRECTION ( 'NONE',  ( 0.0000000000000000000, 0.0000000000000000000, -1.000000000000000000 ) ) ;
#18 = ORIENTED_EDGE ( 'NONE', *, *, #19, .T. ) ;
#19 = EDGE_CURVE ( 'NONE', #25, #25, #83, .T. ) ;
#20 = SURFACE_STYLE_USAGE ( .BOTH. , #135 ) ;
#21 = DIRECTION ( 'NONE',  ( 1.000000000000000000, 0.0000000000000000000, 0.0000000000000000000 ) ) ;
#22 = SURFACE_SIDE_STYLE ('',( #47 ) ) ;
#23 = VERTEX_POINT ( 'NONE', #63 ) ;
#24 =( LENGTH_UNIT ( ) NAMED_UNIT ( * ) SI_UNIT ( .MILLI., .METRE. ) );
#25 = VERTEX_POINT ( 'NONE', #136 ) ;
#26 = FACE_OUTER_BOUND ( 'NONE', #206, .T. ) ;
#27 = CARTESIAN_POINT ( 'NONE',  ( 130.8875108318972025, 0.0000000000000000000, 5.100000000000014744 ) ) ;
#28 = UNCERTAINTY_MEASURE_WITH_UNIT (LENGTH_MEASURE( 1.000000000000000082E-05 ), #182, 'distance_accuracy_value', 'NONE');
#29 = DIRECTION ( 'NONE',  ( 1.000000000000000000, 0.0000000000000000000, 0.0000000000000000000 ) ) ;
#30 = PRODUCT_RELATED_PRODUCT_CATEGORY ( 'part', '', ( #79 ) ) ;
#31 = EDGE_CURVE ( 'NONE', #139, #139, #76, .T. ) ;
#32 = DIRECTION ( 'NONE',  ( 0.0000000000000000000, 0.0000000000000000000, 1.000000000000000000 ) ) ;
#33 = PRESENTATION_STYLE_ASSIGNMENT (( #58 ) ) ;
#34 = CARTESIAN_POINT ( 'NONE',  ( -3.122849337825749433E-16, 5.099999999999998757, 0.0000000000000000000 ) ) ;
#35 = SURFACE_STYLE_USAGE ( .BOTH. , #22 ) ;
#36 = ADVANCED_FACE ( 'NONE', ( #72 ), #183, .T. ) ;
#37 = FILL_AREA_STYLE_COLOUR ( '', #187 ) ;
#38 = EDGE_LOOP ( 'NONE', ( #180 ) ) ;
#39 = DIRECTION ( 'NONE',  ( 1.000000000000000000, 0.0000000000000000000, 0.0000000000000000000 ) ) ;
#40 =( NAMED_UNIT ( * ) SI_UNIT ( $, .STERADIAN. ) SOLID_ANGLE_UNIT ( ) );
#41 = SURFACE_STYLE_FILL_AREA ( #56 ) ;
#42 = EDGE_CURVE ( 'NONE', #23, #23, #112, .T. ) ;
#43 = ADVANCED_FACE ( 'NONE', ( #143, #130 ), #173, .T. ) ;
#44 = CIRCLE ( 'NONE', #51, 5.100000000000014744 ) ;
#45 = EDGE_LOOP ( 'NONE', ( #174 ) ) ;
#46 = APPLICATION_CONTEXT ( 'automotive_design' ) ;
#47 = SURFACE_STYLE_FILL_AREA ( #163 ) ;
#48 = SURFACE_STYLE_FILL_AREA ( #99 ) ;
#49 = ADVANCED_FACE ( 'NONE', ( #164 ), #104, .F. ) ;
#50 = ADVANCED_BREP_SHAPE_REPRESENTATION ( '03-1708', ( #109, #179, #151 ), #120 ) ;
#51 = AXIS2_PLACEMENT_3D ( 'NONE', #1, #114, #98 ) ;
#52 =( LENGTH_UNIT ( ) NAMED_UNIT ( * ) SI_UNIT ( .MILLI., .METRE. ) );
#53 = COLOUR_RGB ( '',1.000000000000000000, 1.000000000000000000, 0.0000000000000000000 ) ;
#54 = PRESENTATION_STYLE_ASSIGNMENT (( #211 ) ) ;
#55 =( NAMED_UNIT ( * ) SI_UNIT ( $, .STERADIAN. ) SOLID_ANGLE_UNIT ( ) );
#56 = FILL_AREA_STYLE ('',( #123 ) ) ;
#57 = ORIENTED_EDGE ( 'NONE', *, *, #42, .F. ) ;
#58 = SURFACE_STYLE_USAGE ( .BOTH. , #59 ) ;
#59 = SURFACE_SIDE_STYLE ('',( #41 ) ) ;
#60 = DIRECTION ( 'NONE',  ( 0.0000000000000000000, 0.0000000000000000000, -1.000000000000000000 ) ) ;
#61 = DIRECTION ( 'NONE',  ( 0.0000000000000000000, 0.0000000000000000000, -1.000000000000000000 ) ) ;
#62 = DIRECTION ( 'NONE',  ( 1.000000000000000000, 0.0000000000000000000, 0.0000000000000000000 ) ) ;
#63 = CARTESIAN_POINT ( 'NONE',  ( -3.122849337825749433E-16, 0.0000000000000000000, -4.080000000000014282 ) ) ;
#64 = CONICAL_SURFACE ( 'NONE', #110, 2414.213562373079185, 1.178097245096170198 ) ;
#65 =( NAMED_UNIT ( * ) SI_UNIT ( $, .STERADIAN. ) SOLID_ANGLE_UNIT ( ) );
#66 = FACE_OUTER_BOUND ( 'NONE', #84, .T. ) ;
#67 = CLOSED_SHELL ( 'NONE', ( #178, #43, #165 ) ) ;
#68 =( NAMED_UNIT ( * ) SI_UNIT ( $, .STERADIAN. ) SOLID_ANGLE_UNIT ( ) );
#69 = EDGE_LOOP ( 'NONE', ( #57 ) ) ;
#70 = DIRECTION ( 'NONE',  ( 0.0000000000000000000, 0.0000000000000000000, -1.000000000000000000 ) ) ;
#71 = UNCERTAINTY_MEASURE_WITH_UNIT (LENGTH_MEASURE( 1.000000000000000082E-05 ), #146, 'distance_accuracy_value', 'NONE');
#72 = FACE_OUTER_BOUND ( 'NONE', #126, .T. ) ;
#73 =( NAMED_UNIT ( * ) PLANE_ANGLE_UNIT ( ) SI_UNIT ( $, .RADIAN. ) );
#74 = CARTESIAN_POINT ( 'NONE',  ( 46.00000000000001421, 0.0000000000000000000, 0.0000000000000000000 ) ) ;
#75 =( GEOMETRIC_REPRESENTATION_CONTEXT ( 3 ) GLOBAL_UNCERTAINTY_ASSIGNED_CONTEXT ( ( #129 ) ) GLOBAL_UNIT_ASSIGNED_CONTEXT ( ( #52, #197, #152 ) ) REPRESENTATION_CONTEXT ( 'NONE', 'WORKASPACE' ) );
#76 = CIRCLE ( 'NONE', #150, 5.100000000000007638 ) ;
#77 = CARTESIAN_POINT ( 'NONE',  ( 46.00000000000001421, 0.0000000000000000000, -5.100000000000007638 ) ) ;
#78 = CARTESIAN_POINT ( 'NONE',  ( -867.0000000000000000, 0.0000000000000000000, 0.0000000000000000000 ) ) ;
#79 = PRODUCT ( '03-1708', '03-1708', '', ( #7 ) ) ;
#80 = FILL_AREA_STYLE_COLOUR ( '', #89 ) ;
#81 = DIRECTION ( 'NONE',  ( -1.000000000000000000, -0.0000000000000000000, -0.0000000000000000000 ) ) ;
#82 = PRESENTATION_LAYER_ASSIGNMENT (  '', '', ( #101 ) ) ;
#83 = CIRCLE ( 'NONE', #203, 5.100000000000007638 ) ;
#84 = EDGE_LOOP ( 'NONE', ( #18 ) ) ;
#85 = FACE_BOUND ( 'NONE', #69, .T. ) ;
#86 = DIRECTION ( 'NONE',  ( 0.0000000000000000000, 0.0000000000000000000, -1.000000000000000000 ) ) ;
#87 =( NAMED_UNIT ( * ) PLANE_ANGLE_UNIT ( ) SI_UNIT ( $, .RADIAN. ) );
#88 = DIRECTION ( 'NONE',  ( 0.0000000000000000000, 0.0000000000000000000, -1.000000000000000000 ) ) ;
#89 = COLOUR_RGB ( '',0.7921568627450980005, 0.8196078431372548767, 0.9333333333333333481 ) ;
#90 = STYLED_ITEM ( 'NONE', ( #119 ), #165 ) ;
#91 = AXIS2_PLACEMENT_3D ( 'NONE', #74, #207, #156 ) ;
#92 = UNCERTAINTY_MEASURE_WITH_UNIT (LENGTH_MEASURE( 1.000000000000000082E-05 ), #208, 'distance_accuracy_value', 'NONE');
#93 = SURFACE_STYLE_FILL_AREA ( #193 ) ;
#94 =( GEOMETRIC_REPRESENTATION_CONTEXT ( 3 ) GLOBAL_UNCERTAINTY_ASSIGNED_CONTEXT ( ( #71 ) ) GLOBAL_UNIT_ASSIGNED_CONTEXT ( ( #146, #87, #55 ) ) REPRESENTATION_CONTEXT ( 'NONE', 'WORKASPACE' ) );
#95 = DIRECTION ( 'NONE',  ( 1.000000000000000000, 0.0000000000000000000, 0.0000000000000000000 ) ) ;
#96 = APPLICATION_PROTOCOL_DEFINITION ( 'draft international standard', 'automotive_design', 1998, #46 ) ;
#97 = EDGE_LOOP ( 'NONE', ( #213 ) ) ;
#98 = DIRECTION ( 'NONE',  ( 0.0000000000000000000, 0.0000000000000000000, 1.000000000000000000 ) ) ;
#99 = FILL_AREA_STYLE ('',( #37 ) ) ;
#100 = DIRECTION ( 'NONE',  ( 1.000000000000000000, 0.0000000000000000000, 0.0000000000000000000 ) ) ;
#101 = STYLED_ITEM ( 'NONE', ( #33 ), #179 ) ;
#102 = COLOUR_RGB ( '',1.000000000000000000, 1.000000000000000000, 0.0000000000000000000 ) ;
#103 = DIRECTION ( 'NONE',  ( -1.000000000000000000, -0.0000000000000000000, -0.0000000000000000000 ) ) ;
#104 = PLANE ( 'NONE',  #166 ) ;
#105 = PRODUCT_DEFINITION_SHAPE ( 'NONE', 'NONE',  #113 ) ;
#106 = CYLINDRICAL_SURFACE ( 'NONE', #184, 5.100000000000007638 ) ;
#107 = EDGE_LOOP ( 'NONE', ( #169 ) ) ;
#108 = MECHANICAL_DESIGN_GEOMETRIC_PRESENTATION_REPRESENTATION (  '', ( #155 ), #94 ) ;
#109 = MANIFOLD_SOLID_BREP ( 'ºÐÇÒ2[1]', #177 ) ;
#110 = AXIS2_PLACEMENT_3D ( 'NONE', #78, #81, #127 ) ;
#111 = ADVANCED_FACE ( 'NONE', ( #200, #85 ), #147, .T. ) ;
#112 = CIRCLE ( 'NONE', #138, 4.080000000000014282 ) ;
#113 = PRODUCT_DEFINITION ( 'UNKNOWN', '', #144, #13 ) ;
#114 = DIRECTION ( 'NONE',  ( -1.000000000000000000, -0.0000000000000000000, -0.0000000000000000000 ) ) ;
#115 = CARTESIAN_POINT ( 'NONE',  ( 46.00000000000001421, 0.0000000000000000000, 0.0000000000000000000 ) ) ;
#116 = CARTESIAN_POINT ( 'NONE',  ( 0.0000000000000000000, 0.0000000000000000000, 0.0000000000000000000 ) ) ;
#117 = PRESENTATION_LAYER_ASSIGNMENT (  '', '', ( #155 ) ) ;
#118 =( LENGTH_UNIT ( ) NAMED_UNIT ( * ) SI_UNIT ( .MILLI., .METRE. ) );
#119 = PRESENTATION_STYLE_ASSIGNMENT (( #4 ) ) ;
#120 =( GEOMETRIC_REPRESENTATION_CONTEXT ( 3 ) GLOBAL_UNCERTAINTY_ASSIGNED_CONTEXT ( ( #28 ) ) GLOBAL_UNIT_ASSIGNED_CONTEXT ( ( #182, #160, #175 ) ) REPRESENTATION_CONTEXT ( 'NONE', 'WORKASPACE' ) );
#121 = AXIS2_PLACEMENT_3D ( 'NONE', #176, #21, #70 ) ;
#122 = ORIENTED_EDGE ( 'NONE', *, *, #19, .F. ) ;
#123 = FILL_AREA_STYLE_COLOUR ( '', #154 ) ;
#124 = CIRCLE ( 'NONE', #137, 5.100000000000007638 ) ;
#125 = AXIS2_PLACEMENT_3D ( 'NONE', #116, #191, #32 ) ;
#126 = EDGE_LOOP ( 'NONE', ( #192 ) ) ;
#127 = DIRECTION ( 'NONE',  ( 0.0000000000000000000, 0.0000000000000000000, 1.000000000000000000 ) ) ;
#128 = FILL_AREA_STYLE ('',( #210 ) ) ;
#129 = UNCERTAINTY_MEASURE_WITH_UNIT (LENGTH_MEASURE( 1.000000000000000082E-05 ), #52, 'distance_accuracy_value', 'NONE');
#130 = FACE_OUTER_BOUND ( 'NONE', #168, .T. ) ;
#131 = CARTESIAN_POINT ( 'NONE',  ( 1.019999999999996465, 0.0000000000000000000, 0.0000000000000000000 ) ) ;
#132 = MECHANICAL_DESIGN_GEOMETRIC_PRESENTATION_REPRESENTATION (  '', ( #134 ), #172 ) ;
#133 = ADVANCED_FACE ( 'NONE', ( #66, #153 ), #106, .T. ) ;
#134 = STYLED_ITEM ( 'NONE', ( #54 ), #50 ) ;
#135 = SURFACE_SIDE_STYLE ('',( #93 ) ) ;
#136 = CARTESIAN_POINT ( 'NONE',  ( 1.019999999999996465, 0.0000000000000000000, -5.100000000000007638 ) ) ;
#137 = AXIS2_PLACEMENT_3D ( 'NONE', #115, #62, #60 ) ;
#138 = AXIS2_PLACEMENT_3D ( 'NONE', #162, #186, #61 ) ;
#139 = VERTEX_POINT ( 'NONE', #77 ) ;
#140 = PRESENTATION_LAYER_ASSIGNMENT (  '', '', ( #188 ) ) ;
#141 = CARTESIAN_POINT ( 'NONE',  ( 46.00000000000001421, 0.0000000000000000000, -5.100000000000007638 ) ) ;
#142 = PRESENTATION_LAYER_ASSIGNMENT (  '', '', ( #134 ) ) ;
#143 = FACE_OUTER_BOUND ( 'NONE', #45, .T. ) ;
#144 = PRODUCT_DEFINITION_FORMATION_WITH_SPECIFIED_SOURCE ( 'ANY', '', #79, .NOT_KNOWN. ) ;
#145 = CARTESIAN_POINT ( 'NONE',  ( -3.122849337825749433E-16, 0.0000000000000000000, 0.0000000000000000000 ) ) ;
#146 =( LENGTH_UNIT ( ) NAMED_UNIT ( * ) SI_UNIT ( .MILLI., .METRE. ) );
#147 = CONICAL_SURFACE ( 'NONE', #161, 4.080000000000014282, 0.7853981633974466137 ) ;
#148 = VERTEX_POINT ( 'NONE', #27 ) ;
#149 =( GEOMETRIC_REPRESENTATION_CONTEXT ( 3 ) GLOBAL_UNCERTAINTY_ASSIGNED_CONTEXT ( ( #204 ) ) GLOBAL_UNIT_ASSIGNED_CONTEXT ( ( #118, #212, #68 ) ) REPRESENTATION_CONTEXT ( 'NONE', 'WORKASPACE' ) );
#150 = AXIS2_PLACEMENT_3D ( 'NONE', #3, #100, #86 ) ;
#151 = AXIS2_PLACEMENT_3D ( 'NONE', #181, #194, #14 ) ;
#152 =( NAMED_UNIT ( * ) SI_UNIT ( $, .STERADIAN. ) SOLID_ANGLE_UNIT ( ) );
#153 = FACE_OUTER_BOUND ( 'NONE', #107, .T. ) ;
#154 = COLOUR_RGB ( '',0.7921568627450980005, 0.8196078431372548767, 0.9333333333333333481 ) ;
#155 = STYLED_ITEM ( 'NONE', ( #171 ), #109 ) ;
#156 = DIRECTION ( 'NONE',  ( 0.0000000000000000000, 0.0000000000000000000, -1.000000000000000000 ) ) ;
#157 = MECHANICAL_DESIGN_GEOMETRIC_PRESENTATION_REPRESENTATION (  '', ( #90 ), #170 ) ;
#158 = PRESENTATION_LAYER_ASSIGNMENT (  '', '', ( #90 ) ) ;
#159 = PLANE ( 'NONE',  #91 ) ;
#160 =( NAMED_UNIT ( * ) PLANE_ANGLE_UNIT ( ) SI_UNIT ( $, .RADIAN. ) );
#161 = AXIS2_PLACEMENT_3D ( 'NONE', #145, #29, #9 ) ;
#162 = CARTESIAN_POINT ( 'NONE',  ( -3.122849337825749433E-16, 0.0000000000000000000, 0.0000000000000000000 ) ) ;
#163 = FILL_AREA_STYLE ('',( #80 ) ) ;
#164 = FACE_OUTER_BOUND ( 'NONE', #97, .T. ) ;
#165 = ADVANCED_FACE ( 'NONE', ( #26 ), #64, .T. ) ;
#166 = AXIS2_PLACEMENT_3D ( 'NONE', #34, #95, #17 ) ;
#167 = ORIENTED_EDGE ( 'NONE', *, *, #5, .F. ) ;
#168 = EDGE_LOOP ( 'NONE', ( #195 ) ) ;
#169 = ORIENTED_EDGE ( 'NONE', *, *, #31, .F. ) ;
#170 =( GEOMETRIC_REPRESENTATION_CONTEXT ( 3 ) GLOBAL_UNCERTAINTY_ASSIGNED_CONTEXT ( ( #202 ) ) GLOBAL_UNIT_ASSIGNED_CONTEXT ( ( #24, #198, #40 ) ) REPRESENTATION_CONTEXT ( 'NONE', 'WORKASPACE' ) );
#171 = PRESENTATION_STYLE_ASSIGNMENT (( #35 ) ) ;
#172 =( GEOMETRIC_REPRESENTATION_CONTEXT ( 3 ) GLOBAL_UNCERTAINTY_ASSIGNED_CONTEXT ( ( #92 ) ) GLOBAL_UNIT_ASSIGNED_CONTEXT ( ( #208, #73, #65 ) ) REPRESENTATION_CONTEXT ( 'NONE', 'WORKASPACE' ) );
#173 = CYLINDRICAL_SURFACE ( 'NONE', #125, 5.100000000000007638 ) ;
#174 = ORIENTED_EDGE ( 'NONE', *, *, #205, .T. ) ;
#175 =( NAMED_UNIT ( * ) SI_UNIT ( $, .STERADIAN. ) SOLID_ANGLE_UNIT ( ) );
#176 = CARTESIAN_POINT ( 'NONE',  ( 46.00000000000001421, 0.0000000000000000000, 0.0000000000000000000 ) ) ;
#177 = CLOSED_SHELL ( 'NONE', ( #133, #49, #111, #36 ) ) ;
#178 = ADVANCED_FACE ( 'NONE', ( #199 ), #159, .F. ) ;
#179 = MANIFOLD_SOLID_BREP ( 'ºÐÇÒ2[2]', #67 ) ;
#180 = ORIENTED_EDGE ( 'NONE', *, *, #205, .F. ) ;
#181 = CARTESIAN_POINT ( 'NONE',  ( 0.0000000000000000000, 0.0000000000000000000, 0.0000000000000000000 ) ) ;
#182 =( LENGTH_UNIT ( ) NAMED_UNIT ( * ) SI_UNIT ( .MILLI., .METRE. ) );
#183 = PLANE ( 'NONE',  #121 ) ;
#184 = AXIS2_PLACEMENT_3D ( 'NONE', #201, #103, #209 ) ;
#185 = MECHANICAL_DESIGN_GEOMETRIC_PRESENTATION_REPRESENTATION (  '', ( #188 ), #149 ) ;
#186 = DIRECTION ( 'NONE',  ( -1.000000000000000000, -0.0000000000000000000, -0.0000000000000000000 ) ) ;
#187 = COLOUR_RGB ( '',0.7921568627450980005, 0.8196078431372548767, 0.9333333333333333481 ) ;
#188 = STYLED_ITEM ( 'NONE', ( #16 ), #43 ) ;
#189 = EDGE_LOOP ( 'NONE', ( #122 ) ) ;
#190 = SURFACE_SIDE_STYLE ('',( #48 ) ) ;
#191 = DIRECTION ( 'NONE',  ( -1.000000000000000000, -0.0000000000000000000, -0.0000000000000000000 ) ) ;
#192 = ORIENTED_EDGE ( 'NONE', *, *, #31, .T. ) ;
#193 = FILL_AREA_STYLE ('',( #6 ) ) ;
#194 = DIRECTION ( 'NONE',  ( 0.0000000000000000000, 0.0000000000000000000, 1.000000000000000000 ) ) ;
#195 = ORIENTED_EDGE ( 'NONE', *, *, #5, .T. ) ;
#196 = SURFACE_STYLE_FILL_AREA ( #128 ) ;
#197 =( NAMED_UNIT ( * ) PLANE_ANGLE_UNIT ( ) SI_UNIT ( $, .RADIAN. ) );
#198 =( NAMED_UNIT ( * ) PLANE_ANGLE_UNIT ( ) SI_UNIT ( $, .RADIAN. ) );
#199 = FACE_OUTER_BOUND ( 'NONE', #38, .T. ) ;
#200 = FACE_OUTER_BOUND ( 'NONE', #189, .T. ) ;
#201 = CARTESIAN_POINT ( 'NONE',  ( 0.0000000000000000000, 0.0000000000000000000, 0.0000000000000000000 ) ) ;
#202 = UNCERTAINTY_MEASURE_WITH_UNIT (LENGTH_MEASURE( 1.000000000000000082E-05 ), #24, 'distance_accuracy_value', 'NONE');
#203 = AXIS2_PLACEMENT_3D ( 'NONE', #131, #39, #88 ) ;
#204 = UNCERTAINTY_MEASURE_WITH_UNIT (LENGTH_MEASURE( 1.000000000000000082E-05 ), #118, 'distance_accuracy_value', 'NONE');
#205 = EDGE_CURVE ( 'NONE', #15, #15, #124, .T. ) ;
#206 = EDGE_LOOP ( 'NONE', ( #167 ) ) ;
#207 = DIRECTION ( 'NONE',  ( 1.000000000000000000, 0.0000000000000000000, 0.0000000000000000000 ) ) ;
#208 =( LENGTH_UNIT ( ) NAMED_UNIT ( * ) SI_UNIT ( .MILLI., .METRE. ) );
#209 = DIRECTION ( 'NONE',  ( 0.0000000000000000000, 0.0000000000000000000, 1.000000000000000000 ) ) ;
#210 = FILL_AREA_STYLE_COLOUR ( '', #53 ) ;
#211 = SURFACE_STYLE_USAGE ( .BOTH. , #190 ) ;
#212 =( NAMED_UNIT ( * ) PLANE_ANGLE_UNIT ( ) SI_UNIT ( $, .RADIAN. ) );
#213 = ORIENTED_EDGE ( 'NONE', *, *, #42, .T. ) ;
ENDSEC;
END-ISO-10303-21;
