ISO-10303-21;
HEADER;
FILE_DESCRIPTION (( 'STEP AP214' ),
    '1' );
FILE_NAME ('03-1710.STEP',
    '2021-10-01T05:46:35',
    ( 'USER' ),
    ( '' ),
    'SwSTEP 2.0',
    'SolidWorks 2018',
    '' );
FILE_SCHEMA (( 'AUTOMOTIVE_DESIGN' ));
ENDSEC;

DATA;
#1 = APPLICATION_CONTEXT ( 'automotive_design' ) ;
#2 = SURFACE_STYLE_FILL_AREA ( #14 ) ;
#3 = DIRECTION ( 'NONE',  ( 0.0000000000000000000, 0.0000000000000000000, -1.000000000000000000 ) ) ;
#4 = CARTESIAN_POINT ( 'NONE',  ( 46.00000000000001421, 0.0000000000000000000, -5.200000000000006395 ) ) ;
#5 = UNCERTAINTY_MEASURE_WITH_UNIT (LENGTH_MEASURE( 1.000000000000000082E-05 ), #51, 'distance_accuracy_value', 'NONE');
#6 = PRODUCT ( '03-1710', '03-1710', '', ( #94 ) ) ;
#7 = AXIS2_PLACEMENT_3D ( 'NONE', #63, #16, #47 ) ;
#8 = FACE_OUTER_BOUND ( 'NONE', #49, .T. ) ;
#9 = DIRECTION ( 'NONE',  ( -1.000000000000000000, -0.0000000000000000000, -0.0000000000000000000 ) ) ;
#10 = CARTESIAN_POINT ( 'NONE',  ( 46.00000000000001421, 0.0000000000000000000, 0.0000000000000000000 ) ) ;
#11 = ADVANCED_FACE ( 'NONE', ( #81, #147 ), #213, .T. ) ;
#12 = DIRECTION ( 'NONE',  ( 1.000000000000000000, 0.0000000000000000000, 0.0000000000000000000 ) ) ;
#13 = CONICAL_SURFACE ( 'NONE', #7, 4.160000000000010800, 0.7853981633974537191 ) ;
#14 = FILL_AREA_STYLE ('',( #174 ) ) ;
#15 =( GEOMETRIC_REPRESENTATION_CONTEXT ( 3 ) GLOBAL_UNCERTAINTY_ASSIGNED_CONTEXT ( ( #105 ) ) GLOBAL_UNIT_ASSIGNED_CONTEXT ( ( #182, #86, #77 ) ) REPRESENTATION_CONTEXT ( 'NONE', 'WORKASPACE' ) );
#16 = DIRECTION ( 'NONE',  ( 1.000000000000000000, 0.0000000000000000000, 0.0000000000000000000 ) ) ;
#17 = VERTEX_POINT ( 'NONE', #4 ) ;
#18 = VERTEX_POINT ( 'NONE', #117 ) ;
#19 = SURFACE_STYLE_USAGE ( .BOTH. , #127 ) ;
#20 = VERTEX_POINT ( 'NONE', #102 ) ;
#21 = AXIS2_PLACEMENT_3D ( 'NONE', #23, #26, #57 ) ;
#22 = CARTESIAN_POINT ( 'NONE',  ( 0.0000000000000000000, 0.0000000000000000000, 0.0000000000000000000 ) ) ;
#23 = CARTESIAN_POINT ( 'NONE',  ( 0.0000000000000000000, 0.0000000000000000000, 0.0000000000000000000 ) ) ;
#24 = DIRECTION ( 'NONE',  ( 0.0000000000000000000, 0.0000000000000000000, -1.000000000000000000 ) ) ;
#25 = ORIENTED_EDGE ( 'NONE', *, *, #142, .F. ) ;
#26 = DIRECTION ( 'NONE',  ( -1.000000000000000000, -0.0000000000000000000, -0.0000000000000000000 ) ) ;
#27 = PRODUCT_DEFINITION ( 'UNKNOWN', '', #71, #172 ) ;
#28 = CARTESIAN_POINT ( 'NONE',  ( 46.00000000000001421, 0.0000000000000000000, 0.0000000000000000000 ) ) ;
#29 = CARTESIAN_POINT ( 'NONE',  ( -867.0000000000000000, 0.0000000000000000000, 0.0000000000000000000 ) ) ;
#30 =( NAMED_UNIT ( * ) PLANE_ANGLE_UNIT ( ) SI_UNIT ( $, .RADIAN. ) );
#31 = PRESENTATION_LAYER_ASSIGNMENT (  '', '', ( #205 ) ) ;
#32 = ADVANCED_FACE ( 'NONE', ( #159 ), #135, .T. ) ;
#33 = EDGE_LOOP ( 'NONE', ( #204 ) ) ;
#34 = DIRECTION ( 'NONE',  ( 1.000000000000000000, 0.0000000000000000000, 0.0000000000000000000 ) ) ;
#35 = DIRECTION ( 'NONE',  ( 1.000000000000000000, 0.0000000000000000000, 0.0000000000000000000 ) ) ;
#36 = CARTESIAN_POINT ( 'NONE',  ( -3.184081677783117205E-16, 5.199999999999999289, 0.0000000000000000000 ) ) ;
#37 = CARTESIAN_POINT ( 'NONE',  ( 1.039999999999984270, 0.0000000000000000000, 0.0000000000000000000 ) ) ;
#38 = SURFACE_STYLE_USAGE ( .BOTH. , #188 ) ;
#39 = ORIENTED_EDGE ( 'NONE', *, *, #99, .T. ) ;
#40 =( NAMED_UNIT ( * ) SI_UNIT ( $, .STERADIAN. ) SOLID_ANGLE_UNIT ( ) );
#41 = MANIFOLD_SOLID_BREP ( 'ºÐÇÒ2[2]', #177 ) ;
#42 = AXIS2_PLACEMENT_3D ( 'NONE', #37, #80, #143 ) ;
#43 = FACE_OUTER_BOUND ( 'NONE', #186, .T. ) ;
#44 = ORIENTED_EDGE ( 'NONE', *, *, #99, .F. ) ;
#45 = SURFACE_STYLE_USAGE ( .BOTH. , #160 ) ;
#46 = CONICAL_SURFACE ( 'NONE', #163, 2414.213562373055083, 1.178097245096166645 ) ;
#47 = DIRECTION ( 'NONE',  ( 0.0000000000000000000, 0.0000000000000000000, -1.000000000000000000 ) ) ;
#48 = PRODUCT_DEFINITION_SHAPE ( 'NONE', 'NONE',  #27 ) ;
#49 = EDGE_LOOP ( 'NONE', ( #179 ) ) ;
#50 = CIRCLE ( 'NONE', #175, 5.200000000000006395 ) ;
#51 =( LENGTH_UNIT ( ) NAMED_UNIT ( * ) SI_UNIT ( .MILLI., .METRE. ) );
#52 = PRESENTATION_STYLE_ASSIGNMENT (( #19 ) ) ;
#53 = PRESENTATION_STYLE_ASSIGNMENT (( #38 ) ) ;
#54 = COLOUR_RGB ( '',0.7921568627450980005, 0.8196078431372548767, 0.9333333333333333481 ) ;
#55 = FILL_AREA_STYLE ('',( #151 ) ) ;
#56 = SURFACE_STYLE_FILL_AREA ( #167 ) ;
#57 = DIRECTION ( 'NONE',  ( 0.0000000000000000000, 0.0000000000000000000, 1.000000000000000000 ) ) ;
#58 = FILL_AREA_STYLE_COLOUR ( '', #189 ) ;
#59 = AXIS2_PLACEMENT_3D ( 'NONE', #130, #210, #164 ) ;
#60 = DIRECTION ( 'NONE',  ( 0.0000000000000000000, 0.0000000000000000000, -1.000000000000000000 ) ) ;
#61 = ORIENTED_EDGE ( 'NONE', *, *, #119, .F. ) ;
#62 =( NAMED_UNIT ( * ) PLANE_ANGLE_UNIT ( ) SI_UNIT ( $, .RADIAN. ) );
#63 = CARTESIAN_POINT ( 'NONE',  ( -3.184081677783117205E-16, 0.0000000000000000000, 0.0000000000000000000 ) ) ;
#64 = EDGE_LOOP ( 'NONE', ( #44 ) ) ;
#65 = UNCERTAINTY_MEASURE_WITH_UNIT (LENGTH_MEASURE( 1.000000000000000082E-05 ), #96, 'distance_accuracy_value', 'NONE');
#66 = VERTEX_POINT ( 'NONE', #211 ) ;
#67 = CARTESIAN_POINT ( 'NONE',  ( 46.00000000000001421, 0.0000000000000000000, 0.0000000000000000000 ) ) ;
#68 = MECHANICAL_DESIGN_GEOMETRIC_PRESENTATION_REPRESENTATION (  '', ( #145 ), #132 ) ;
#69 = COLOUR_RGB ( '',0.7921568627450980005, 0.8196078431372548767, 0.9333333333333333481 ) ;
#70 = UNCERTAINTY_MEASURE_WITH_UNIT (LENGTH_MEASURE( 1.000000000000000082E-05 ), #76, 'distance_accuracy_value', 'NONE');
#71 = PRODUCT_DEFINITION_FORMATION_WITH_SPECIFIED_SOURCE ( 'ANY', '', #6, .NOT_KNOWN. ) ;
#72 = DIRECTION ( 'NONE',  ( 0.0000000000000000000, 0.0000000000000000000, 1.000000000000000000 ) ) ;
#73 = DIRECTION ( 'NONE',  ( 0.0000000000000000000, 0.0000000000000000000, -1.000000000000000000 ) ) ;
#74 = CYLINDRICAL_SURFACE ( 'NONE', #158, 5.200000000000006395 ) ;
#75 = DIRECTION ( 'NONE',  ( 0.0000000000000000000, 0.0000000000000000000, -1.000000000000000000 ) ) ;
#76 =( LENGTH_UNIT ( ) NAMED_UNIT ( * ) SI_UNIT ( .MILLI., .METRE. ) );
#77 =( NAMED_UNIT ( * ) SI_UNIT ( $, .STERADIAN. ) SOLID_ANGLE_UNIT ( ) );
#78 = SURFACE_SIDE_STYLE ('',( #153 ) ) ;
#79 = PRESENTATION_LAYER_ASSIGNMENT (  '', '', ( #93 ) ) ;
#80 = DIRECTION ( 'NONE',  ( 1.000000000000000000, 0.0000000000000000000, 0.0000000000000000000 ) ) ;
#81 = FACE_OUTER_BOUND ( 'NONE', #33, .T. ) ;
#82 = PLANE ( 'NONE',  #166 ) ;
#83 = AXIS2_PLACEMENT_3D ( 'NONE', #28, #128, #73 ) ;
#84 = PRESENTATION_STYLE_ASSIGNMENT (( #45 ) ) ;
#85 = SHAPE_DEFINITION_REPRESENTATION ( #48, #181 ) ;
#86 =( NAMED_UNIT ( * ) PLANE_ANGLE_UNIT ( ) SI_UNIT ( $, .RADIAN. ) );
#87 = UNCERTAINTY_MEASURE_WITH_UNIT (LENGTH_MEASURE( 1.000000000000000082E-05 ), #88, 'distance_accuracy_value', 'NONE');
#88 =( LENGTH_UNIT ( ) NAMED_UNIT ( * ) SI_UNIT ( .MILLI., .METRE. ) );
#89 = FILL_AREA_STYLE ('',( #155 ) ) ;
#90 = DIRECTION ( 'NONE',  ( 0.0000000000000000000, 0.0000000000000000000, 1.000000000000000000 ) ) ;
#91 = VERTEX_POINT ( 'NONE', #97 ) ;
#92 =( NAMED_UNIT ( * ) SI_UNIT ( $, .STERADIAN. ) SOLID_ANGLE_UNIT ( ) );
#93 = STYLED_ITEM ( 'NONE', ( #98 ), #41 ) ;
#94 = PRODUCT_CONTEXT ( 'NONE', #103, 'mechanical' ) ;
#95 = ADVANCED_FACE ( 'NONE', ( #43 ), #150, .F. ) ;
#96 =( LENGTH_UNIT ( ) NAMED_UNIT ( * ) SI_UNIT ( .MILLI., .METRE. ) );
#97 = CARTESIAN_POINT ( 'NONE',  ( 1.039999999999984270, 0.0000000000000000000, -5.200000000000006395 ) ) ;
#98 = PRESENTATION_STYLE_ASSIGNMENT (( #152 ) ) ;
#99 = EDGE_CURVE ( 'NONE', #91, #91, #185, .T. ) ;
#100 = FACE_OUTER_BOUND ( 'NONE', #190, .T. ) ;
#101 = FACE_OUTER_BOUND ( 'NONE', #64, .T. ) ;
#102 = CARTESIAN_POINT ( 'NONE',  ( -3.184081677783117205E-16, 0.0000000000000000000, -4.160000000000010800 ) ) ;
#103 = APPLICATION_CONTEXT ( 'automotive_design' ) ;
#104 = DIRECTION ( 'NONE',  ( 1.000000000000000000, 0.0000000000000000000, 0.0000000000000000000 ) ) ;
#105 = UNCERTAINTY_MEASURE_WITH_UNIT (LENGTH_MEASURE( 1.000000000000000082E-05 ), #182, 'distance_accuracy_value', 'NONE');
#106 = UNCERTAINTY_MEASURE_WITH_UNIT (LENGTH_MEASURE( 1.000000000000000082E-05 ), #169, 'distance_accuracy_value', 'NONE');
#107 = SURFACE_STYLE_USAGE ( .BOTH. , #78 ) ;
#108 = FILL_AREA_STYLE_COLOUR ( '', #54 ) ;
#109 = FACE_OUTER_BOUND ( 'NONE', #126, .T. ) ;
#110 = SURFACE_SIDE_STYLE ('',( #118 ) ) ;
#111 =( GEOMETRIC_REPRESENTATION_CONTEXT ( 3 ) GLOBAL_UNCERTAINTY_ASSIGNED_CONTEXT ( ( #5 ) ) GLOBAL_UNIT_ASSIGNED_CONTEXT ( ( #51, #30, #92 ) ) REPRESENTATION_CONTEXT ( 'NONE', 'WORKASPACE' ) );
#112 = ORIENTED_EDGE ( 'NONE', *, *, #192, .T. ) ;
#113 = FACE_BOUND ( 'NONE', #184, .T. ) ;
#114 = APPLICATION_PROTOCOL_DEFINITION ( 'draft international standard', 'automotive_design', 1998, #1 ) ;
#115 = EDGE_LOOP ( 'NONE', ( #183 ) ) ;
#116 = CARTESIAN_POINT ( 'NONE',  ( 0.0000000000000000000, 0.0000000000000000000, 0.0000000000000000000 ) ) ;
#117 = CARTESIAN_POINT ( 'NONE',  ( 46.00000000000001421, 0.0000000000000000000, -5.200000000000006395 ) ) ;
#118 = SURFACE_STYLE_FILL_AREA ( #55 ) ;
#119 = EDGE_CURVE ( 'NONE', #66, #66, #212, .T. ) ;
#120 = FILL_AREA_STYLE ('',( #58 ) ) ;
#121 = APPLICATION_PROTOCOL_DEFINITION ( 'draft international standard', 'automotive_design', 1998, #103 ) ;
#122 =( NAMED_UNIT ( * ) PLANE_ANGLE_UNIT ( ) SI_UNIT ( $, .RADIAN. ) );
#123 = DIRECTION ( 'NONE',  ( 0.0000000000000000000, 0.0000000000000000000, -1.000000000000000000 ) ) ;
#124 = PRESENTATION_STYLE_ASSIGNMENT (( #107 ) ) ;
#125 = PRESENTATION_LAYER_ASSIGNMENT (  '', '', ( #145 ) ) ;
#126 = EDGE_LOOP ( 'NONE', ( #39 ) ) ;
#127 = SURFACE_SIDE_STYLE ('',( #2 ) ) ;
#128 = DIRECTION ( 'NONE',  ( 1.000000000000000000, 0.0000000000000000000, 0.0000000000000000000 ) ) ;
#129 =( GEOMETRIC_REPRESENTATION_CONTEXT ( 3 ) GLOBAL_UNCERTAINTY_ASSIGNED_CONTEXT ( ( #70 ) ) GLOBAL_UNIT_ASSIGNED_CONTEXT ( ( #76, #199, #40 ) ) REPRESENTATION_CONTEXT ( 'NONE', 'WORKASPACE' ) );
#130 = CARTESIAN_POINT ( 'NONE',  ( 130.8460894756598805, 0.0000000000000000000, 0.0000000000000000000 ) ) ;
#131 = EDGE_CURVE ( 'NONE', #20, #20, #193, .T. ) ;
#132 =( GEOMETRIC_REPRESENTATION_CONTEXT ( 3 ) GLOBAL_UNCERTAINTY_ASSIGNED_CONTEXT ( ( #106 ) ) GLOBAL_UNIT_ASSIGNED_CONTEXT ( ( #169, #180, #133 ) ) REPRESENTATION_CONTEXT ( 'NONE', 'WORKASPACE' ) );
#133 =( NAMED_UNIT ( * ) SI_UNIT ( $, .STERADIAN. ) SOLID_ANGLE_UNIT ( ) );
#134 = CARTESIAN_POINT ( 'NONE',  ( 46.00000000000001421, 0.0000000000000000000, 0.0000000000000000000 ) ) ;
#135 = PLANE ( 'NONE',  #83 ) ;
#136 = CIRCLE ( 'NONE', #209, 5.200000000000006395 ) ;
#137 = COLOUR_RGB ( '',0.7921568627450980005, 0.8196078431372548767, 0.9333333333333333481 ) ;
#138 = FACE_OUTER_BOUND ( 'NONE', #176, .T. ) ;
#139 = DIRECTION ( 'NONE',  ( 1.000000000000000000, 0.0000000000000000000, 0.0000000000000000000 ) ) ;
#140 = MECHANICAL_DESIGN_GEOMETRIC_PRESENTATION_REPRESENTATION (  '', ( #201 ), #111 ) ;
#141 = DIRECTION ( 'NONE',  ( -1.000000000000000000, -0.0000000000000000000, -0.0000000000000000000 ) ) ;
#142 = EDGE_CURVE ( 'NONE', #17, #17, #136, .T. ) ;
#143 = DIRECTION ( 'NONE',  ( 0.0000000000000000000, 0.0000000000000000000, -1.000000000000000000 ) ) ;
#144 = ORIENTED_EDGE ( 'NONE', *, *, #131, .F. ) ;
#145 = STYLED_ITEM ( 'NONE', ( #52 ), #146 ) ;
#146 = MANIFOLD_SOLID_BREP ( 'ºÐÇÒ2[1]', #168 ) ;
#147 = FACE_OUTER_BOUND ( 'NONE', #115, .T. ) ;
#148 =( NAMED_UNIT ( * ) SI_UNIT ( $, .STERADIAN. ) SOLID_ANGLE_UNIT ( ) );
#149 = ORIENTED_EDGE ( 'NONE', *, *, #131, .T. ) ;
#150 = PLANE ( 'NONE',  #203 ) ;
#151 = FILL_AREA_STYLE_COLOUR ( '', #137 ) ;
#152 = SURFACE_STYLE_USAGE ( .BOTH. , #110 ) ;
#153 = SURFACE_STYLE_FILL_AREA ( #120 ) ;
#154 = ADVANCED_FACE ( 'NONE', ( #138 ), #46, .T. ) ;
#155 = FILL_AREA_STYLE_COLOUR ( '', #191 ) ;
#156 = EDGE_LOOP ( 'NONE', ( #112 ) ) ;
#157 =( GEOMETRIC_REPRESENTATION_CONTEXT ( 3 ) GLOBAL_UNCERTAINTY_ASSIGNED_CONTEXT ( ( #87 ) ) GLOBAL_UNIT_ASSIGNED_CONTEXT ( ( #88, #62, #148 ) ) REPRESENTATION_CONTEXT ( 'NONE', 'WORKASPACE' ) );
#158 = AXIS2_PLACEMENT_3D ( 'NONE', #116, #9, #200 ) ;
#159 = FACE_OUTER_BOUND ( 'NONE', #156, .T. ) ;
#160 = SURFACE_SIDE_STYLE ('',( #197 ) ) ;
#161 = PRESENTATION_LAYER_ASSIGNMENT (  '', '', ( #201 ) ) ;
#162 = ADVANCED_FACE ( 'NONE', ( #100 ), #82, .F. ) ;
#163 = AXIS2_PLACEMENT_3D ( 'NONE', #29, #141, #90 ) ;
#164 = DIRECTION ( 'NONE',  ( 0.0000000000000000000, 0.0000000000000000000, 1.000000000000000000 ) ) ;
#165 =( NAMED_UNIT ( * ) SI_UNIT ( $, .STERADIAN. ) SOLID_ANGLE_UNIT ( ) );
#166 = AXIS2_PLACEMENT_3D ( 'NONE', #36, #139, #3 ) ;
#167 = FILL_AREA_STYLE ('',( #108 ) ) ;
#168 = CLOSED_SHELL ( 'NONE', ( #206, #162, #195, #32 ) ) ;
#169 =( LENGTH_UNIT ( ) NAMED_UNIT ( * ) SI_UNIT ( .MILLI., .METRE. ) );
#170 = PRESENTATION_LAYER_ASSIGNMENT (  '', '', ( #178 ) ) ;
#171 = CARTESIAN_POINT ( 'NONE',  ( -3.184081677783117205E-16, 0.0000000000000000000, 0.0000000000000000000 ) ) ;
#172 = PRODUCT_DEFINITION_CONTEXT ( 'detailed design', #1, 'design' ) ;
#173 = MECHANICAL_DESIGN_GEOMETRIC_PRESENTATION_REPRESENTATION (  '', ( #93 ), #129 ) ;
#174 = FILL_AREA_STYLE_COLOUR ( '', #69 ) ;
#175 = AXIS2_PLACEMENT_3D ( 'NONE', #10, #12, #24 ) ;
#176 = EDGE_LOOP ( 'NONE', ( #61 ) ) ;
#177 = CLOSED_SHELL ( 'NONE', ( #95, #11, #154 ) ) ;
#178 = STYLED_ITEM ( 'NONE', ( #53 ), #181 ) ;
#179 = ORIENTED_EDGE ( 'NONE', *, *, #192, .F. ) ;
#180 =( NAMED_UNIT ( * ) PLANE_ANGLE_UNIT ( ) SI_UNIT ( $, .RADIAN. ) );
#181 = ADVANCED_BREP_SHAPE_REPRESENTATION ( '03-1710', ( #146, #41, #208 ), #198 ) ;
#182 =( LENGTH_UNIT ( ) NAMED_UNIT ( * ) SI_UNIT ( .MILLI., .METRE. ) );
#183 = ORIENTED_EDGE ( 'NONE', *, *, #119, .T. ) ;
#184 = EDGE_LOOP ( 'NONE', ( #144 ) ) ;
#185 = CIRCLE ( 'NONE', #42, 5.200000000000006395 ) ;
#186 = EDGE_LOOP ( 'NONE', ( #25 ) ) ;
#187 = MECHANICAL_DESIGN_GEOMETRIC_PRESENTATION_REPRESENTATION (  '', ( #205 ), #157 ) ;
#188 = SURFACE_SIDE_STYLE ('',( #56 ) ) ;
#189 = COLOUR_RGB ( '',1.000000000000000000, 1.000000000000000000, 0.0000000000000000000 ) ;
#190 = EDGE_LOOP ( 'NONE', ( #149 ) ) ;
#191 = COLOUR_RGB ( '',1.000000000000000000, 1.000000000000000000, 0.0000000000000000000 ) ;
#192 = EDGE_CURVE ( 'NONE', #18, #18, #50, .T. ) ;
#193 = CIRCLE ( 'NONE', #196, 4.160000000000010800 ) ;
#194 = MECHANICAL_DESIGN_GEOMETRIC_PRESENTATION_REPRESENTATION (  '', ( #178 ), #15 ) ;
#195 = ADVANCED_FACE ( 'NONE', ( #101, #113 ), #13, .T. ) ;
#196 = AXIS2_PLACEMENT_3D ( 'NONE', #171, #207, #75 ) ;
#197 = SURFACE_STYLE_FILL_AREA ( #89 ) ;
#198 =( GEOMETRIC_REPRESENTATION_CONTEXT ( 3 ) GLOBAL_UNCERTAINTY_ASSIGNED_CONTEXT ( ( #65 ) ) GLOBAL_UNIT_ASSIGNED_CONTEXT ( ( #96, #122, #165 ) ) REPRESENTATION_CONTEXT ( 'NONE', 'WORKASPACE' ) );
#199 =( NAMED_UNIT ( * ) PLANE_ANGLE_UNIT ( ) SI_UNIT ( $, .RADIAN. ) );
#200 = DIRECTION ( 'NONE',  ( 0.0000000000000000000, 0.0000000000000000000, 1.000000000000000000 ) ) ;
#201 = STYLED_ITEM ( 'NONE', ( #124 ), #11 ) ;
#202 = PRODUCT_RELATED_PRODUCT_CATEGORY ( 'part', '', ( #6 ) ) ;
#203 = AXIS2_PLACEMENT_3D ( 'NONE', #67, #35, #60 ) ;
#204 = ORIENTED_EDGE ( 'NONE', *, *, #142, .T. ) ;
#205 = STYLED_ITEM ( 'NONE', ( #84 ), #154 ) ;
#206 = ADVANCED_FACE ( 'NONE', ( #109, #8 ), #74, .T. ) ;
#207 = DIRECTION ( 'NONE',  ( -1.000000000000000000, -0.0000000000000000000, -0.0000000000000000000 ) ) ;
#208 = AXIS2_PLACEMENT_3D ( 'NONE', #22, #72, #104 ) ;
#209 = AXIS2_PLACEMENT_3D ( 'NONE', #134, #34, #123 ) ;
#210 = DIRECTION ( 'NONE',  ( -1.000000000000000000, -0.0000000000000000000, -0.0000000000000000000 ) ) ;
#211 = CARTESIAN_POINT ( 'NONE',  ( 130.8460894756598805, 0.0000000000000000000, 5.200000000000015277 ) ) ;
#212 = CIRCLE ( 'NONE', #59, 5.200000000000015277 ) ;
#213 = CYLINDRICAL_SURFACE ( 'NONE', #21, 5.200000000000006395 ) ;
ENDSEC;
END-ISO-10303-21;
