ISO-10303-21;
HEADER;
FILE_DESCRIPTION (( 'STEP AP214' ),
    '1' );
FILE_NAME ('03-1712.STEP',
    '2021-10-01T05:47:12',
    ( 'USER' ),
    ( '' ),
    'SwSTEP 2.0',
    'SolidWorks 2018',
    '' );
FILE_SCHEMA (( 'AUTOMOTIVE_DESIGN' ));
ENDSEC;

DATA;
#1 = APPLICATION_PROTOCOL_DEFINITION ( 'draft international standard', 'automotive_design', 1998, #49 ) ;
#2 = DIRECTION ( 'NONE',  ( 0.0000000000000000000, 0.0000000000000000000, -1.000000000000000000 ) ) ;
#3 = FACE_OUTER_BOUND ( 'NONE', #38, .T. ) ;
#4 = FILL_AREA_STYLE_COLOUR ( '', #184 ) ;
#5 = COLOUR_RGB ( '',0.7921568627450980005, 0.8196078431372548767, 0.9333333333333333481 ) ;
#6 = CARTESIAN_POINT ( 'NONE',  ( 46.00000000000001421, 0.0000000000000000000, 0.0000000000000000000 ) ) ;
#7 = VERTEX_POINT ( 'NONE', #104 ) ;
#8 = DIRECTION ( 'NONE',  ( 0.0000000000000000000, 0.0000000000000000000, -1.000000000000000000 ) ) ;
#9 = VERTEX_POINT ( 'NONE', #125 ) ;
#10 = FILL_AREA_STYLE ('',( #37 ) ) ;
#11 = PRESENTATION_LAYER_ASSIGNMENT (  '', '', ( #27 ) ) ;
#12 = VERTEX_POINT ( 'NONE', #94 ) ;
#13 = AXIS2_PLACEMENT_3D ( 'NONE', #167, #139, #14 ) ;
#14 = DIRECTION ( 'NONE',  ( 0.0000000000000000000, 0.0000000000000000000, -1.000000000000000000 ) ) ;
#15 = FACE_OUTER_BOUND ( 'NONE', #168, .T. ) ;
#16 = CARTESIAN_POINT ( 'NONE',  ( -867.0000000000000000, 0.0000000000000000000, 0.0000000000000000000 ) ) ;
#17 = AXIS2_PLACEMENT_3D ( 'NONE', #132, #146, #60 ) ;
#18 = CYLINDRICAL_SURFACE ( 'NONE', #105, 5.300000000000007816 ) ;
#19 =( NAMED_UNIT ( * ) PLANE_ANGLE_UNIT ( ) SI_UNIT ( $, .RADIAN. ) );
#20 = ADVANCED_FACE ( 'NONE', ( #82 ), #90, .T. ) ;
#21 = CYLINDRICAL_SURFACE ( 'NONE', #183, 5.300000000000007816 ) ;
#22 = FILL_AREA_STYLE_COLOUR ( '', #44 ) ;
#23 =( NAMED_UNIT ( * ) PLANE_ANGLE_UNIT ( ) SI_UNIT ( $, .RADIAN. ) );
#24 = CARTESIAN_POINT ( 'NONE',  ( 0.0000000000000000000, 0.0000000000000000000, 0.0000000000000000000 ) ) ;
#25 = FILL_AREA_STYLE ('',( #52 ) ) ;
#26 = CARTESIAN_POINT ( 'NONE',  ( 130.8046681194225584, 0.0000000000000000000, 5.300000000000015810 ) ) ;
#27 = STYLED_ITEM ( 'NONE', ( #79 ), #117 ) ;
#28 = DIRECTION ( 'NONE',  ( 1.000000000000000000, 0.0000000000000000000, 0.0000000000000000000 ) ) ;
#29 = DIRECTION ( 'NONE',  ( 0.0000000000000000000, 0.0000000000000000000, 1.000000000000000000 ) ) ;
#30 = SURFACE_SIDE_STYLE ('',( #103 ) ) ;
#31 =( NAMED_UNIT ( * ) SI_UNIT ( $, .STERADIAN. ) SOLID_ANGLE_UNIT ( ) );
#32 = FACE_BOUND ( 'NONE', #182, .T. ) ;
#33 = FILL_AREA_STYLE ('',( #4 ) ) ;
#34 = AXIS2_PLACEMENT_3D ( 'NONE', #6, #65, #8 ) ;
#35 = PRODUCT_CONTEXT ( 'NONE', #49, 'mechanical' ) ;
#36 = DIRECTION ( 'NONE',  ( 1.000000000000000000, 0.0000000000000000000, 0.0000000000000000000 ) ) ;
#37 = FILL_AREA_STYLE_COLOUR ( '', #123 ) ;
#38 = EDGE_LOOP ( 'NONE', ( #133 ) ) ;
#39 = SURFACE_STYLE_USAGE ( .BOTH. , #46 ) ;
#40 =( LENGTH_UNIT ( ) NAMED_UNIT ( * ) SI_UNIT ( .MILLI., .METRE. ) );
#41 = CARTESIAN_POINT ( 'NONE',  ( 46.00000000000001421, 0.0000000000000000000, 0.0000000000000000000 ) ) ;
#42 = DIRECTION ( 'NONE',  ( -1.000000000000000000, -0.0000000000000000000, -0.0000000000000000000 ) ) ;
#43 = PRESENTATION_LAYER_ASSIGNMENT (  '', '', ( #135 ) ) ;
#44 = COLOUR_RGB ( '',1.000000000000000000, 1.000000000000000000, 0.0000000000000000000 ) ;
#45 = EDGE_LOOP ( 'NONE', ( #175 ) ) ;
#46 = SURFACE_SIDE_STYLE ('',( #179 ) ) ;
#47 = PRESENTATION_LAYER_ASSIGNMENT (  '', '', ( #181 ) ) ;
#48 = ORIENTED_EDGE ( 'NONE', *, *, #71, .F. ) ;
#49 = APPLICATION_CONTEXT ( 'automotive_design' ) ;
#50 = PRODUCT_DEFINITION_FORMATION_WITH_SPECIFIED_SOURCE ( 'ANY', '', #192, .NOT_KNOWN. ) ;
#51 = DIRECTION ( 'NONE',  ( -1.000000000000000000, -0.0000000000000000000, -0.0000000000000000000 ) ) ;
#52 = FILL_AREA_STYLE_COLOUR ( '', #164 ) ;
#53 = FACE_OUTER_BOUND ( 'NONE', #208, .T. ) ;
#54 = ORIENTED_EDGE ( 'NONE', *, *, #87, .T. ) ;
#55 =( NAMED_UNIT ( * ) SI_UNIT ( $, .STERADIAN. ) SOLID_ANGLE_UNIT ( ) );
#56 = AXIS2_PLACEMENT_3D ( 'NONE', #136, #28, #169 ) ;
#57 = PLANE ( 'NONE',  #206 ) ;
#58 = PLANE ( 'NONE',  #118 ) ;
#59 = SURFACE_STYLE_USAGE ( .BOTH. , #108 ) ;
#60 = DIRECTION ( 'NONE',  ( 0.0000000000000000000, 0.0000000000000000000, -1.000000000000000000 ) ) ;
#61 = MECHANICAL_DESIGN_GEOMETRIC_PRESENTATION_REPRESENTATION (  '', ( #27 ), #115 ) ;
#62 = PRESENTATION_LAYER_ASSIGNMENT (  '', '', ( #106 ) ) ;
#63 = DIRECTION ( 'NONE',  ( 1.000000000000000000, 0.0000000000000000000, 0.0000000000000000000 ) ) ;
#64 = ORIENTED_EDGE ( 'NONE', *, *, #97, .F. ) ;
#65 = DIRECTION ( 'NONE',  ( 1.000000000000000000, 0.0000000000000000000, 0.0000000000000000000 ) ) ;
#66 = PRODUCT_RELATED_PRODUCT_CATEGORY ( 'part', '', ( #192 ) ) ;
#67 =( NAMED_UNIT ( * ) PLANE_ANGLE_UNIT ( ) SI_UNIT ( $, .RADIAN. ) );
#68 = VERTEX_POINT ( 'NONE', #26 ) ;
#69 =( NAMED_UNIT ( * ) SI_UNIT ( $, .STERADIAN. ) SOLID_ANGLE_UNIT ( ) );
#70 = UNCERTAINTY_MEASURE_WITH_UNIT (LENGTH_MEASURE( 1.000000000000000082E-05 ), #89, 'distance_accuracy_value', 'NONE');
#71 = EDGE_CURVE ( 'NONE', #68, #68, #165, .T. ) ;
#72 = CIRCLE ( 'NONE', #163, 4.239999999999966462 ) ;
#73 =( LENGTH_UNIT ( ) NAMED_UNIT ( * ) SI_UNIT ( .MILLI., .METRE. ) );
#74 = FACE_OUTER_BOUND ( 'NONE', #116, .T. ) ;
#75 = MANIFOLD_SOLID_BREP ( 'ºÐÇÒ2[2]', #113 ) ;
#76 = PRODUCT_DEFINITION_CONTEXT ( 'detailed design', #187, 'design' ) ;
#77 = CIRCLE ( 'NONE', #56, 5.300000000000007816 ) ;
#78 =( LENGTH_UNIT ( ) NAMED_UNIT ( * ) SI_UNIT ( .MILLI., .METRE. ) );
#79 = PRESENTATION_STYLE_ASSIGNMENT (( #86 ) ) ;
#80 = SURFACE_STYLE_FILL_AREA ( #101 ) ;
#81 = AXIS2_PLACEMENT_3D ( 'NONE', #92, #205, #212 ) ;
#82 = FACE_OUTER_BOUND ( 'NONE', #188, .T. ) ;
#83 = PRESENTATION_STYLE_ASSIGNMENT (( #39 ) ) ;
#84 = ADVANCED_FACE ( 'NONE', ( #153, #193 ), #21, .T. ) ;
#85 = ORIENTED_EDGE ( 'NONE', *, *, #111, .T. ) ;
#86 = SURFACE_STYLE_USAGE ( .BOTH. , #180 ) ;
#87 = EDGE_CURVE ( 'NONE', #127, #127, #72, .T. ) ;
#88 =( NAMED_UNIT ( * ) SI_UNIT ( $, .STERADIAN. ) SOLID_ANGLE_UNIT ( ) );
#89 =( LENGTH_UNIT ( ) NAMED_UNIT ( * ) SI_UNIT ( .MILLI., .METRE. ) );
#90 = CONICAL_SURFACE ( 'NONE', #210, 2414.213562373062814, 1.178097245096167756 ) ;
#91 = APPLICATION_PROTOCOL_DEFINITION ( 'draft international standard', 'automotive_design', 1998, #187 ) ;
#92 = CARTESIAN_POINT ( 'NONE',  ( 0.0000000000000000000, 0.0000000000000000000, 0.0000000000000000000 ) ) ;
#93 = DIRECTION ( 'NONE',  ( 0.0000000000000000000, 0.0000000000000000000, 1.000000000000000000 ) ) ;
#94 = CARTESIAN_POINT ( 'NONE',  ( 1.060000000000044018, 0.0000000000000000000, -5.300000000000007816 ) ) ;
#95 = PRESENTATION_STYLE_ASSIGNMENT (( #59 ) ) ;
#96 = FACE_OUTER_BOUND ( 'NONE', #45, .T. ) ;
#97 = EDGE_CURVE ( 'NONE', #12, #12, #77, .T. ) ;
#98 =( GEOMETRIC_REPRESENTATION_CONTEXT ( 3 ) GLOBAL_UNCERTAINTY_ASSIGNED_CONTEXT ( ( #176 ) ) GLOBAL_UNIT_ASSIGNED_CONTEXT ( ( #78, #157, #88 ) ) REPRESENTATION_CONTEXT ( 'NONE', 'WORKASPACE' ) );
#99 = ADVANCED_FACE ( 'NONE', ( #143, #32 ), #140, .T. ) ;
#100 = EDGE_LOOP ( 'NONE', ( #172 ) ) ;
#101 = FILL_AREA_STYLE ('',( #129 ) ) ;
#102 = SURFACE_STYLE_USAGE ( .BOTH. , #142 ) ;
#103 = SURFACE_STYLE_FILL_AREA ( #124 ) ;
#104 = CARTESIAN_POINT ( 'NONE',  ( 46.00000000000001421, 0.0000000000000000000, -5.300000000000007816 ) ) ;
#105 = AXIS2_PLACEMENT_3D ( 'NONE', #155, #174, #209 ) ;
#106 = STYLED_ITEM ( 'NONE', ( #190 ), #75 ) ;
#107 =( NAMED_UNIT ( * ) SI_UNIT ( $, .STERADIAN. ) SOLID_ANGLE_UNIT ( ) );
#108 = SURFACE_SIDE_STYLE ('',( #200 ) ) ;
#109 = DIRECTION ( 'NONE',  ( 0.0000000000000000000, 0.0000000000000000000, -1.000000000000000000 ) ) ;
#110 = EDGE_LOOP ( 'NONE', ( #144 ) ) ;
#111 = EDGE_CURVE ( 'NONE', #7, #7, #204, .T. ) ;
#112 =( LENGTH_UNIT ( ) NAMED_UNIT ( * ) SI_UNIT ( .MILLI., .METRE. ) );
#113 = CLOSED_SHELL ( 'NONE', ( #213, #162, #20 ) ) ;
#114 = DIRECTION ( 'NONE',  ( 0.0000000000000000000, 0.0000000000000000000, -1.000000000000000000 ) ) ;
#115 =( GEOMETRIC_REPRESENTATION_CONTEXT ( 3 ) GLOBAL_UNCERTAINTY_ASSIGNED_CONTEXT ( ( #128 ) ) GLOBAL_UNIT_ASSIGNED_CONTEXT ( ( #141, #67, #69 ) ) REPRESENTATION_CONTEXT ( 'NONE', 'WORKASPACE' ) );
#116 = EDGE_LOOP ( 'NONE', ( #54 ) ) ;
#117 = ADVANCED_BREP_SHAPE_REPRESENTATION ( '03-1712', ( #160, #75, #81 ), #196 ) ;
#118 = AXIS2_PLACEMENT_3D ( 'NONE', #41, #63, #109 ) ;
#119 = PRODUCT_DEFINITION ( 'UNKNOWN', '', #50, #76 ) ;
#120 = SURFACE_STYLE_FILL_AREA ( #10 ) ;
#121 = CARTESIAN_POINT ( 'NONE',  ( 130.8046681194225584, 0.0000000000000000000, 0.0000000000000000000 ) ) ;
#122 = EDGE_CURVE ( 'NONE', #9, #9, #147, .T. ) ;
#123 = COLOUR_RGB ( '',0.7921568627450980005, 0.8196078431372548767, 0.9333333333333333481 ) ;
#124 = FILL_AREA_STYLE ('',( #22 ) ) ;
#125 = CARTESIAN_POINT ( 'NONE',  ( 46.00000000000001421, 0.0000000000000000000, -5.300000000000007816 ) ) ;
#126 = MECHANICAL_DESIGN_GEOMETRIC_PRESENTATION_REPRESENTATION (  '', ( #135 ), #130 ) ;
#127 = VERTEX_POINT ( 'NONE', #198 ) ;
#128 = UNCERTAINTY_MEASURE_WITH_UNIT (LENGTH_MEASURE( 1.000000000000000082E-05 ), #141, 'distance_accuracy_value', 'NONE');
#129 = FILL_AREA_STYLE_COLOUR ( '', #5 ) ;
#130 =( GEOMETRIC_REPRESENTATION_CONTEXT ( 3 ) GLOBAL_UNCERTAINTY_ASSIGNED_CONTEXT ( ( #70 ) ) GLOBAL_UNIT_ASSIGNED_CONTEXT ( ( #89, #23, #107 ) ) REPRESENTATION_CONTEXT ( 'NONE', 'WORKASPACE' ) );
#131 = STYLED_ITEM ( 'NONE', ( #83 ), #20 ) ;
#132 = CARTESIAN_POINT ( 'NONE',  ( 46.00000000000001421, 0.0000000000000000000, 0.0000000000000000000 ) ) ;
#133 = ORIENTED_EDGE ( 'NONE', *, *, #122, .F. ) ;
#134 = EDGE_LOOP ( 'NONE', ( #64 ) ) ;
#135 = STYLED_ITEM ( 'NONE', ( #95 ), #160 ) ;
#136 = CARTESIAN_POINT ( 'NONE',  ( 1.060000000000044018, 0.0000000000000000000, 0.0000000000000000000 ) ) ;
#137 = ORIENTED_EDGE ( 'NONE', *, *, #87, .F. ) ;
#138 = DIRECTION ( 'NONE',  ( -1.000000000000000000, -0.0000000000000000000, -0.0000000000000000000 ) ) ;
#139 = DIRECTION ( 'NONE',  ( 1.000000000000000000, 0.0000000000000000000, 0.0000000000000000000 ) ) ;
#140 = CONICAL_SURFACE ( 'NONE', #13, 4.239999999999966462, 0.7853981633974471688 ) ;
#141 =( LENGTH_UNIT ( ) NAMED_UNIT ( * ) SI_UNIT ( .MILLI., .METRE. ) );
#142 = SURFACE_SIDE_STYLE ('',( #120 ) ) ;
#143 = FACE_OUTER_BOUND ( 'NONE', #134, .T. ) ;
#144 = ORIENTED_EDGE ( 'NONE', *, *, #111, .F. ) ;
#145 = PRESENTATION_LAYER_ASSIGNMENT (  '', '', ( #131 ) ) ;
#146 = DIRECTION ( 'NONE',  ( 1.000000000000000000, 0.0000000000000000000, 0.0000000000000000000 ) ) ;
#147 = CIRCLE ( 'NONE', #177, 5.300000000000007816 ) ;
#148 = ORIENTED_EDGE ( 'NONE', *, *, #122, .T. ) ;
#149 = MECHANICAL_DESIGN_GEOMETRIC_PRESENTATION_REPRESENTATION (  '', ( #106 ), #98 ) ;
#150 = UNCERTAINTY_MEASURE_WITH_UNIT (LENGTH_MEASURE( 1.000000000000000082E-05 ), #73, 'distance_accuracy_value', 'NONE');
#151 = ADVANCED_FACE ( 'NONE', ( #15 ), #58, .T. ) ;
#152 = MECHANICAL_DESIGN_GEOMETRIC_PRESENTATION_REPRESENTATION (  '', ( #131 ), #173 ) ;
#153 = FACE_OUTER_BOUND ( 'NONE', #100, .T. ) ;
#154 =( NAMED_UNIT ( * ) PLANE_ANGLE_UNIT ( ) SI_UNIT ( $, .RADIAN. ) );
#155 = CARTESIAN_POINT ( 'NONE',  ( 0.0000000000000000000, 0.0000000000000000000, 0.0000000000000000000 ) ) ;
#156 = SURFACE_STYLE_USAGE ( .BOTH. , #30 ) ;
#157 =( NAMED_UNIT ( * ) PLANE_ANGLE_UNIT ( ) SI_UNIT ( $, .RADIAN. ) );
#158 = SHAPE_DEFINITION_REPRESENTATION ( #170, #117 ) ;
#159 = CARTESIAN_POINT ( 'NONE',  ( -3.245314017740484976E-16, 5.299999999999998934, 0.0000000000000000000 ) ) ;
#160 = MANIFOLD_SOLID_BREP ( 'ºÐÇÒ2[1]', #194 ) ;
#161 = PRESENTATION_STYLE_ASSIGNMENT (( #156 ) ) ;
#162 = ADVANCED_FACE ( 'NONE', ( #53, #96 ), #18, .T. ) ;
#163 = AXIS2_PLACEMENT_3D ( 'NONE', #199, #138, #2 ) ;
#164 = COLOUR_RGB ( '',0.7921568627450980005, 0.8196078431372548767, 0.9333333333333333481 ) ;
#165 = CIRCLE ( 'NONE', #171, 5.300000000000015810 ) ;
#166 = PLANE ( 'NONE',  #17 ) ;
#167 = CARTESIAN_POINT ( 'NONE',  ( -3.245314017740484976E-16, 0.0000000000000000000, 0.0000000000000000000 ) ) ;
#168 = EDGE_LOOP ( 'NONE', ( #85 ) ) ;
#169 = DIRECTION ( 'NONE',  ( 0.0000000000000000000, 0.0000000000000000000, -1.000000000000000000 ) ) ;
#170 = PRODUCT_DEFINITION_SHAPE ( 'NONE', 'NONE',  #119 ) ;
#171 = AXIS2_PLACEMENT_3D ( 'NONE', #121, #178, #93 ) ;
#172 = ORIENTED_EDGE ( 'NONE', *, *, #97, .T. ) ;
#173 =( GEOMETRIC_REPRESENTATION_CONTEXT ( 3 ) GLOBAL_UNCERTAINTY_ASSIGNED_CONTEXT ( ( #191 ) ) GLOBAL_UNIT_ASSIGNED_CONTEXT ( ( #40, #19, #31 ) ) REPRESENTATION_CONTEXT ( 'NONE', 'WORKASPACE' ) );
#174 = DIRECTION ( 'NONE',  ( -1.000000000000000000, -0.0000000000000000000, -0.0000000000000000000 ) ) ;
#175 = ORIENTED_EDGE ( 'NONE', *, *, #71, .T. ) ;
#176 = UNCERTAINTY_MEASURE_WITH_UNIT (LENGTH_MEASURE( 1.000000000000000082E-05 ), #78, 'distance_accuracy_value', 'NONE');
#177 = AXIS2_PLACEMENT_3D ( 'NONE', #185, #203, #114 ) ;
#178 = DIRECTION ( 'NONE',  ( -1.000000000000000000, -0.0000000000000000000, -0.0000000000000000000 ) ) ;
#179 = SURFACE_STYLE_FILL_AREA ( #33 ) ;
#180 = SURFACE_SIDE_STYLE ('',( #80 ) ) ;
#181 = STYLED_ITEM ( 'NONE', ( #161 ), #162 ) ;
#182 = EDGE_LOOP ( 'NONE', ( #137 ) ) ;
#183 = AXIS2_PLACEMENT_3D ( 'NONE', #24, #51, #186 ) ;
#184 = COLOUR_RGB ( '',1.000000000000000000, 1.000000000000000000, 0.0000000000000000000 ) ;
#185 = CARTESIAN_POINT ( 'NONE',  ( 46.00000000000001421, 0.0000000000000000000, 0.0000000000000000000 ) ) ;
#186 = DIRECTION ( 'NONE',  ( 0.0000000000000000000, 0.0000000000000000000, 1.000000000000000000 ) ) ;
#187 = APPLICATION_CONTEXT ( 'automotive_design' ) ;
#188 = EDGE_LOOP ( 'NONE', ( #48 ) ) ;
#189 =( NAMED_UNIT ( * ) PLANE_ANGLE_UNIT ( ) SI_UNIT ( $, .RADIAN. ) );
#190 = PRESENTATION_STYLE_ASSIGNMENT (( #102 ) ) ;
#191 = UNCERTAINTY_MEASURE_WITH_UNIT (LENGTH_MEASURE( 1.000000000000000082E-05 ), #40, 'distance_accuracy_value', 'NONE');
#192 = PRODUCT ( '03-1712', '03-1712', '', ( #35 ) ) ;
#193 = FACE_OUTER_BOUND ( 'NONE', #110, .T. ) ;
#194 = CLOSED_SHELL ( 'NONE', ( #84, #197, #99, #151 ) ) ;
#195 = DIRECTION ( 'NONE',  ( 0.0000000000000000000, 0.0000000000000000000, -1.000000000000000000 ) ) ;
#196 =( GEOMETRIC_REPRESENTATION_CONTEXT ( 3 ) GLOBAL_UNCERTAINTY_ASSIGNED_CONTEXT ( ( #150 ) ) GLOBAL_UNIT_ASSIGNED_CONTEXT ( ( #73, #154, #202 ) ) REPRESENTATION_CONTEXT ( 'NONE', 'WORKASPACE' ) );
#197 = ADVANCED_FACE ( 'NONE', ( #74 ), #57, .F. ) ;
#198 = CARTESIAN_POINT ( 'NONE',  ( -3.245314017740484976E-16, 0.0000000000000000000, -4.239999999999966462 ) ) ;
#199 = CARTESIAN_POINT ( 'NONE',  ( -3.245314017740484976E-16, 0.0000000000000000000, 0.0000000000000000000 ) ) ;
#200 = SURFACE_STYLE_FILL_AREA ( #25 ) ;
#201 = MECHANICAL_DESIGN_GEOMETRIC_PRESENTATION_REPRESENTATION (  '', ( #181 ), #211 ) ;
#202 =( NAMED_UNIT ( * ) SI_UNIT ( $, .STERADIAN. ) SOLID_ANGLE_UNIT ( ) );
#203 = DIRECTION ( 'NONE',  ( 1.000000000000000000, 0.0000000000000000000, 0.0000000000000000000 ) ) ;
#204 = CIRCLE ( 'NONE', #34, 5.300000000000007816 ) ;
#205 = DIRECTION ( 'NONE',  ( 0.0000000000000000000, 0.0000000000000000000, 1.000000000000000000 ) ) ;
#206 = AXIS2_PLACEMENT_3D ( 'NONE', #159, #36, #195 ) ;
#207 = UNCERTAINTY_MEASURE_WITH_UNIT (LENGTH_MEASURE( 1.000000000000000082E-05 ), #112, 'distance_accuracy_value', 'NONE');
#208 = EDGE_LOOP ( 'NONE', ( #148 ) ) ;
#209 = DIRECTION ( 'NONE',  ( 0.0000000000000000000, 0.0000000000000000000, 1.000000000000000000 ) ) ;
#210 = AXIS2_PLACEMENT_3D ( 'NONE', #16, #42, #29 ) ;
#211 =( GEOMETRIC_REPRESENTATION_CONTEXT ( 3 ) GLOBAL_UNCERTAINTY_ASSIGNED_CONTEXT ( ( #207 ) ) GLOBAL_UNIT_ASSIGNED_CONTEXT ( ( #112, #189, #55 ) ) REPRESENTATION_CONTEXT ( 'NONE', 'WORKASPACE' ) );
#212 = DIRECTION ( 'NONE',  ( 1.000000000000000000, 0.0000000000000000000, 0.0000000000000000000 ) ) ;
#213 = ADVANCED_FACE ( 'NONE', ( #3 ), #166, .F. ) ;
ENDSEC;
END-ISO-10303-21;
