ISO-10303-21;
HEADER;
FILE_DESCRIPTION (( 'STEP AP214' ),
    '1' );
FILE_NAME ('03-1713.STEP',
    '2021-10-01T05:47:31',
    ( 'USER' ),
    ( '' ),
    'SwSTEP 2.0',
    'SolidWorks 2018',
    '' );
FILE_SCHEMA (( 'AUTOMOTIVE_DESIGN' ));
ENDSEC;

DATA;
#1 = SURFACE_SIDE_STYLE ('',( #72 ) ) ;
#2 = EDGE_LOOP ( 'NONE', ( #142 ) ) ;
#3 = CYLINDRICAL_SURFACE ( 'NONE', #4, 5.350000000000007638 ) ;
#4 = AXIS2_PLACEMENT_3D ( 'NONE', #124, #158, #107 ) ;
#5 = SURFACE_STYLE_FILL_AREA ( #137 ) ;
#6 = DIRECTION ( 'NONE',  ( 1.000000000000000000, 0.0000000000000000000, 0.0000000000000000000 ) ) ;
#7 = CIRCLE ( 'NONE', #73, 5.350000000000007638 ) ;
#8 = DIRECTION ( 'NONE',  ( 0.0000000000000000000, 0.0000000000000000000, 1.000000000000000000 ) ) ;
#9 = DIRECTION ( 'NONE',  ( -1.000000000000000000, -0.0000000000000000000, -0.0000000000000000000 ) ) ;
#10 = VERTEX_POINT ( 'NONE', #207 ) ;
#11 = PRESENTATION_STYLE_ASSIGNMENT (( #154 ) ) ;
#12 = DIRECTION ( 'NONE',  ( 1.000000000000000000, 0.0000000000000000000, 0.0000000000000000000 ) ) ;
#13 = CARTESIAN_POINT ( 'NONE',  ( 47.99999999999998579, 0.0000000000000000000, 0.0000000000000000000 ) ) ;
#14 = FACE_OUTER_BOUND ( 'NONE', #116, .T. ) ;
#15 = DIRECTION ( 'NONE',  ( 0.0000000000000000000, 0.0000000000000000000, -1.000000000000000000 ) ) ;
#16 =( LENGTH_UNIT ( ) NAMED_UNIT ( * ) SI_UNIT ( .MILLI., .METRE. ) );
#17 = FILL_AREA_STYLE ('',( #111 ) ) ;
#18 = ORIENTED_EDGE ( 'NONE', *, *, #186, .T. ) ;
#19 = APPLICATION_PROTOCOL_DEFINITION ( 'draft international standard', 'automotive_design', 1998, #112 ) ;
#20 = AXIS2_PLACEMENT_3D ( 'NONE', #140, #52, #156 ) ;
#21 =( NAMED_UNIT ( * ) SI_UNIT ( $, .STERADIAN. ) SOLID_ANGLE_UNIT ( ) );
#22 = PLANE ( 'NONE',  #182 ) ;
#23 = SURFACE_STYLE_USAGE ( .BOTH. , #34 ) ;
#24 = STYLED_ITEM ( 'NONE', ( #83 ), #63 ) ;
#25 = PRODUCT_DEFINITION_SHAPE ( 'NONE', 'NONE',  #213 ) ;
#26 =( NAMED_UNIT ( * ) PLANE_ANGLE_UNIT ( ) SI_UNIT ( $, .RADIAN. ) );
#27 = FACE_BOUND ( 'NONE', #37, .T. ) ;
#28 = DIRECTION ( 'NONE',  ( 0.0000000000000000000, 0.0000000000000000000, -1.000000000000000000 ) ) ;
#29 = FILL_AREA_STYLE ('',( #94 ) ) ;
#30 = CARTESIAN_POINT ( 'NONE',  ( -858.0000000000000000, 0.0000000000000000000, 0.0000000000000000000 ) ) ;
#31 = DIRECTION ( 'NONE',  ( 0.0000000000000000000, 0.0000000000000000000, 1.000000000000000000 ) ) ;
#32 = DIRECTION ( 'NONE',  ( -1.000000000000000000, -0.0000000000000000000, -0.0000000000000000000 ) ) ;
#33 = CYLINDRICAL_SURFACE ( 'NONE', #125, 5.350000000000007638 ) ;
#34 = SURFACE_SIDE_STYLE ('',( #99 ) ) ;
#35 = FACE_OUTER_BOUND ( 'NONE', #188, .T. ) ;
#36 = DIRECTION ( 'NONE',  ( 0.0000000000000000000, 0.0000000000000000000, -1.000000000000000000 ) ) ;
#37 = EDGE_LOOP ( 'NONE', ( #192 ) ) ;
#38 = FACE_OUTER_BOUND ( 'NONE', #65, .T. ) ;
#39 = AXIS2_PLACEMENT_3D ( 'NONE', #86, #12, #203 ) ;
#40 = CARTESIAN_POINT ( 'NONE',  ( 1.070000000000003615, 0.0000000000000000000, 0.0000000000000000000 ) ) ;
#41 = CIRCLE ( 'NONE', #163, 4.280000000000006466 ) ;
#42 = SURFACE_SIDE_STYLE ('',( #54 ) ) ;
#43 = FACE_OUTER_BOUND ( 'NONE', #185, .T. ) ;
#44 = COLOUR_RGB ( '',0.7921568627450980005, 0.8196078431372548767, 0.9333333333333333481 ) ;
#45 = EDGE_LOOP ( 'NONE', ( #104 ) ) ;
#46 = ADVANCED_FACE ( 'NONE', ( #179 ), #22, .F. ) ;
#47 = MECHANICAL_DESIGN_GEOMETRIC_PRESENTATION_REPRESENTATION (  '', ( #133 ), #82 ) ;
#48 = VERTEX_POINT ( 'NONE', #174 ) ;
#49 = AXIS2_PLACEMENT_3D ( 'NONE', #40, #141, #59 ) ;
#50 = COLOUR_RGB ( '',0.7921568627450980005, 0.8196078431372548767, 0.9333333333333333481 ) ;
#51 = SURFACE_SIDE_STYLE ('',( #5 ) ) ;
#52 = DIRECTION ( 'NONE',  ( 1.000000000000000000, 0.0000000000000000000, 0.0000000000000000000 ) ) ;
#53 = ORIENTED_EDGE ( 'NONE', *, *, #78, .T. ) ;
#54 = SURFACE_STYLE_FILL_AREA ( #17 ) ;
#55 =( NAMED_UNIT ( * ) PLANE_ANGLE_UNIT ( ) SI_UNIT ( $, .RADIAN. ) );
#56 = COLOUR_RGB ( '',1.000000000000000000, 1.000000000000000000, 0.0000000000000000000 ) ;
#57 = FACE_OUTER_BOUND ( 'NONE', #2, .T. ) ;
#58 = FILL_AREA_STYLE ('',( #170 ) ) ;
#59 = DIRECTION ( 'NONE',  ( 0.0000000000000000000, 0.0000000000000000000, -1.000000000000000000 ) ) ;
#60 =( LENGTH_UNIT ( ) NAMED_UNIT ( * ) SI_UNIT ( .MILLI., .METRE. ) );
#61 = MECHANICAL_DESIGN_GEOMETRIC_PRESENTATION_REPRESENTATION (  '', ( #24 ), #181 ) ;
#62 = CARTESIAN_POINT ( 'NONE',  ( -3.275930187719168862E-16, 0.0000000000000000000, 0.0000000000000000000 ) ) ;
#63 = ADVANCED_FACE ( 'NONE', ( #108 ), #109, .T. ) ;
#64 = EDGE_CURVE ( 'NONE', #89, #89, #41, .T. ) ;
#65 = EDGE_LOOP ( 'NONE', ( #196 ) ) ;
#66 = MANIFOLD_SOLID_BREP ( 'ºÐÇÒ2[1]', #146 ) ;
#67 = SURFACE_STYLE_USAGE ( .BOTH. , #151 ) ;
#68 =( LENGTH_UNIT ( ) NAMED_UNIT ( * ) SI_UNIT ( .MILLI., .METRE. ) );
#69 = DIRECTION ( 'NONE',  ( 1.000000000000000000, 0.0000000000000000000, 0.0000000000000000000 ) ) ;
#70 = VERTEX_POINT ( 'NONE', #187 ) ;
#71 = PRESENTATION_LAYER_ASSIGNMENT (  '', '', ( #127 ) ) ;
#72 = SURFACE_STYLE_FILL_AREA ( #58 ) ;
#73 = AXIS2_PLACEMENT_3D ( 'NONE', #87, #88, #101 ) ;
#74 = DIRECTION ( 'NONE',  ( 1.000000000000000000, 0.0000000000000000000, 0.0000000000000000000 ) ) ;
#75 =( NAMED_UNIT ( * ) SI_UNIT ( $, .STERADIAN. ) SOLID_ANGLE_UNIT ( ) );
#76 = PRESENTATION_STYLE_ASSIGNMENT (( #144 ) ) ;
#77 = VERTEX_POINT ( 'NONE', #206 ) ;
#78 = EDGE_CURVE ( 'NONE', #48, #48, #119, .T. ) ;
#79 = ADVANCED_FACE ( 'NONE', ( #35, #157 ), #3, .T. ) ;
#80 = PRODUCT_DEFINITION_FORMATION_WITH_SPECIFIED_SOURCE ( 'ANY', '', #81, .NOT_KNOWN. ) ;
#81 = PRODUCT ( '03-1713', '03-1713', '', ( #209 ) ) ;
#82 =( GEOMETRIC_REPRESENTATION_CONTEXT ( 3 ) GLOBAL_UNCERTAINTY_ASSIGNED_CONTEXT ( ( #152 ) ) GLOBAL_UNIT_ASSIGNED_CONTEXT ( ( #198, #26, #121 ) ) REPRESENTATION_CONTEXT ( 'NONE', 'WORKASPACE' ) );
#83 = PRESENTATION_STYLE_ASSIGNMENT (( #23 ) ) ;
#84 =( NAMED_UNIT ( * ) PLANE_ANGLE_UNIT ( ) SI_UNIT ( $, .RADIAN. ) );
#85 = PRESENTATION_LAYER_ASSIGNMENT (  '', '', ( #133 ) ) ;
#86 = CARTESIAN_POINT ( 'NONE',  ( -3.275930187719168862E-16, 5.349999999999998757, 0.0000000000000000000 ) ) ;
#87 = CARTESIAN_POINT ( 'NONE',  ( 47.99999999999998579, 0.0000000000000000000, 0.0000000000000000000 ) ) ;
#88 = DIRECTION ( 'NONE',  ( 1.000000000000000000, 0.0000000000000000000, 0.0000000000000000000 ) ) ;
#89 = VERTEX_POINT ( 'NONE', #90 ) ;
#90 = CARTESIAN_POINT ( 'NONE',  ( -3.275930187719168862E-16, 0.0000000000000000000, -4.280000000000006466 ) ) ;
#91 = MANIFOLD_SOLID_BREP ( 'ºÐÇÒ2[2]', #132 ) ;
#92 = APPLICATION_PROTOCOL_DEFINITION ( 'draft international standard', 'automotive_design', 1998, #208 ) ;
#93 = CARTESIAN_POINT ( 'NONE',  ( 139.7839574413038974, 0.0000000000000000000, 0.0000000000000000000 ) ) ;
#94 = FILL_AREA_STYLE_COLOUR ( '', #153 ) ;
#95 = MECHANICAL_DESIGN_GEOMETRIC_PRESENTATION_REPRESENTATION (  '', ( #127 ), #100 ) ;
#96 = ORIENTED_EDGE ( 'NONE', *, *, #177, .T. ) ;
#97 =( GEOMETRIC_REPRESENTATION_CONTEXT ( 3 ) GLOBAL_UNCERTAINTY_ASSIGNED_CONTEXT ( ( #212 ) ) GLOBAL_UNIT_ASSIGNED_CONTEXT ( ( #16, #159, #195 ) ) REPRESENTATION_CONTEXT ( 'NONE', 'WORKASPACE' ) );
#98 =( NAMED_UNIT ( * ) SI_UNIT ( $, .STERADIAN. ) SOLID_ANGLE_UNIT ( ) );
#99 = SURFACE_STYLE_FILL_AREA ( #29 ) ;
#100 =( GEOMETRIC_REPRESENTATION_CONTEXT ( 3 ) GLOBAL_UNCERTAINTY_ASSIGNED_CONTEXT ( ( #118 ) ) GLOBAL_UNIT_ASSIGNED_CONTEXT ( ( #167, #183, #98 ) ) REPRESENTATION_CONTEXT ( 'NONE', 'WORKASPACE' ) );
#101 = DIRECTION ( 'NONE',  ( 0.0000000000000000000, 0.0000000000000000000, -1.000000000000000000 ) ) ;
#102 = ORIENTED_EDGE ( 'NONE', *, *, #177, .F. ) ;
#103 = DIRECTION ( 'NONE',  ( 1.000000000000000000, 0.0000000000000000000, 0.0000000000000000000 ) ) ;
#104 = ORIENTED_EDGE ( 'NONE', *, *, #165, .F. ) ;
#105 = PRESENTATION_STYLE_ASSIGNMENT (( #67 ) ) ;
#106 = CIRCLE ( 'NONE', #49, 5.350000000000007638 ) ;
#107 = DIRECTION ( 'NONE',  ( 0.0000000000000000000, 0.0000000000000000000, 1.000000000000000000 ) ) ;
#108 = FACE_OUTER_BOUND ( 'NONE', #114, .T. ) ;
#109 = CONICAL_SURFACE ( 'NONE', #145, 2414.213562373067361, 1.178097245096168422 ) ;
#110 = CARTESIAN_POINT ( 'NONE',  ( 47.99999999999998579, 0.0000000000000000000, 0.0000000000000000000 ) ) ;
#111 = FILL_AREA_STYLE_COLOUR ( '', #44 ) ;
#112 = APPLICATION_CONTEXT ( 'automotive_design' ) ;
#113 = AXIS2_PLACEMENT_3D ( 'NONE', #93, #147, #31 ) ;
#114 = EDGE_LOOP ( 'NONE', ( #115 ) ) ;
#115 = ORIENTED_EDGE ( 'NONE', *, *, #78, .F. ) ;
#116 = EDGE_LOOP ( 'NONE', ( #18 ) ) ;
#117 = PRODUCT_RELATED_PRODUCT_CATEGORY ( 'part', '', ( #81 ) ) ;
#118 = UNCERTAINTY_MEASURE_WITH_UNIT (LENGTH_MEASURE( 1.000000000000000082E-05 ), #167, 'distance_accuracy_value', 'NONE');
#119 = CIRCLE ( 'NONE', #113, 5.350000000000017408 ) ;
#120 = PRESENTATION_LAYER_ASSIGNMENT (  '', '', ( #190 ) ) ;
#121 =( NAMED_UNIT ( * ) SI_UNIT ( $, .STERADIAN. ) SOLID_ANGLE_UNIT ( ) );
#122 = ADVANCED_FACE ( 'NONE', ( #14, #178 ), #33, .T. ) ;
#123 = AXIS2_PLACEMENT_3D ( 'NONE', #130, #189, #103 ) ;
#124 = CARTESIAN_POINT ( 'NONE',  ( 0.0000000000000000000, 0.0000000000000000000, 0.0000000000000000000 ) ) ;
#125 = AXIS2_PLACEMENT_3D ( 'NONE', #201, #9, #8 ) ;
#126 = FILL_AREA_STYLE_COLOUR ( '', #50 ) ;
#127 = STYLED_ITEM ( 'NONE', ( #105 ), #79 ) ;
#128 = DIRECTION ( 'NONE',  ( 0.0000000000000000000, 0.0000000000000000000, -1.000000000000000000 ) ) ;
#129 = DIRECTION ( 'NONE',  ( -1.000000000000000000, -0.0000000000000000000, -0.0000000000000000000 ) ) ;
#130 = CARTESIAN_POINT ( 'NONE',  ( 0.0000000000000000000, 0.0000000000000000000, 0.0000000000000000000 ) ) ;
#131 = ORIENTED_EDGE ( 'NONE', *, *, #165, .T. ) ;
#132 = CLOSED_SHELL ( 'NONE', ( #46, #79, #63 ) ) ;
#133 = STYLED_ITEM ( 'NONE', ( #210 ), #66 ) ;
#134 = ADVANCED_FACE ( 'NONE', ( #57, #27 ), #155, .T. ) ;
#135 = SHAPE_DEFINITION_REPRESENTATION ( #25, #175 ) ;
#136 = FILL_AREA_STYLE ('',( #161 ) ) ;
#137 = FILL_AREA_STYLE ('',( #126 ) ) ;
#138 = PRODUCT_DEFINITION_CONTEXT ( 'detailed design', #112, 'design' ) ;
#139 = CARTESIAN_POINT ( 'NONE',  ( -3.275930187719168862E-16, 0.0000000000000000000, 0.0000000000000000000 ) ) ;
#140 = CARTESIAN_POINT ( 'NONE',  ( 47.99999999999998579, 0.0000000000000000000, 0.0000000000000000000 ) ) ;
#141 = DIRECTION ( 'NONE',  ( 1.000000000000000000, 0.0000000000000000000, 0.0000000000000000000 ) ) ;
#142 = ORIENTED_EDGE ( 'NONE', *, *, #186, .F. ) ;
#143 = CIRCLE ( 'NONE', #20, 5.350000000000007638 ) ;
#144 = SURFACE_STYLE_USAGE ( .BOTH. , #42 ) ;
#145 = AXIS2_PLACEMENT_3D ( 'NONE', #30, #32, #191 ) ;
#146 = CLOSED_SHELL ( 'NONE', ( #122, #180, #134, #199 ) ) ;
#147 = DIRECTION ( 'NONE',  ( -1.000000000000000000, -0.0000000000000000000, -0.0000000000000000000 ) ) ;
#148 =( GEOMETRIC_REPRESENTATION_CONTEXT ( 3 ) GLOBAL_UNCERTAINTY_ASSIGNED_CONTEXT ( ( #205 ) ) GLOBAL_UNIT_ASSIGNED_CONTEXT ( ( #60, #160, #75 ) ) REPRESENTATION_CONTEXT ( 'NONE', 'WORKASPACE' ) );
#149 = SURFACE_STYLE_USAGE ( .BOTH. , #1 ) ;
#150 = UNCERTAINTY_MEASURE_WITH_UNIT (LENGTH_MEASURE( 1.000000000000000082E-05 ), #68, 'distance_accuracy_value', 'NONE');
#151 = SURFACE_SIDE_STYLE ('',( #211 ) ) ;
#152 = UNCERTAINTY_MEASURE_WITH_UNIT (LENGTH_MEASURE( 1.000000000000000082E-05 ), #198, 'distance_accuracy_value', 'NONE');
#153 = COLOUR_RGB ( '',1.000000000000000000, 1.000000000000000000, 0.0000000000000000000 ) ;
#154 = SURFACE_STYLE_USAGE ( .BOTH. , #51 ) ;
#155 = CONICAL_SURFACE ( 'NONE', #204, 4.280000000000006466, 0.7853981633974471688 ) ;
#156 = DIRECTION ( 'NONE',  ( 0.0000000000000000000, 0.0000000000000000000, -1.000000000000000000 ) ) ;
#157 = FACE_OUTER_BOUND ( 'NONE', #176, .T. ) ;
#158 = DIRECTION ( 'NONE',  ( -1.000000000000000000, -0.0000000000000000000, -0.0000000000000000000 ) ) ;
#159 =( NAMED_UNIT ( * ) PLANE_ANGLE_UNIT ( ) SI_UNIT ( $, .RADIAN. ) );
#160 =( NAMED_UNIT ( * ) PLANE_ANGLE_UNIT ( ) SI_UNIT ( $, .RADIAN. ) );
#161 = FILL_AREA_STYLE_COLOUR ( '', #56 ) ;
#162 = MECHANICAL_DESIGN_GEOMETRIC_PRESENTATION_REPRESENTATION (  '', ( #173 ), #148 ) ;
#163 = AXIS2_PLACEMENT_3D ( 'NONE', #62, #129, #15 ) ;
#164 =( GEOMETRIC_REPRESENTATION_CONTEXT ( 3 ) GLOBAL_UNCERTAINTY_ASSIGNED_CONTEXT ( ( #150 ) ) GLOBAL_UNIT_ASSIGNED_CONTEXT ( ( #68, #84, #184 ) ) REPRESENTATION_CONTEXT ( 'NONE', 'WORKASPACE' ) );
#165 = EDGE_CURVE ( 'NONE', #70, #70, #143, .T. ) ;
#166 = PLANE ( 'NONE',  #194 ) ;
#167 =( LENGTH_UNIT ( ) NAMED_UNIT ( * ) SI_UNIT ( .MILLI., .METRE. ) );
#168 = PLANE ( 'NONE',  #39 ) ;
#169 = PRESENTATION_LAYER_ASSIGNMENT (  '', '', ( #173 ) ) ;
#170 = FILL_AREA_STYLE_COLOUR ( '', #193 ) ;
#171 = EDGE_LOOP ( 'NONE', ( #102 ) ) ;
#172 = PRESENTATION_LAYER_ASSIGNMENT (  '', '', ( #24 ) ) ;
#173 = STYLED_ITEM ( 'NONE', ( #76 ), #175 ) ;
#174 = CARTESIAN_POINT ( 'NONE',  ( 139.7839574413038974, 0.0000000000000000000, 5.350000000000017408 ) ) ;
#175 = ADVANCED_BREP_SHAPE_REPRESENTATION ( '03-1713', ( #66, #91, #123 ), #97 ) ;
#176 = EDGE_LOOP ( 'NONE', ( #53 ) ) ;
#177 = EDGE_CURVE ( 'NONE', #77, #77, #7, .T. ) ;
#178 = FACE_OUTER_BOUND ( 'NONE', #171, .T. ) ;
#179 = FACE_OUTER_BOUND ( 'NONE', #45, .T. ) ;
#180 = ADVANCED_FACE ( 'NONE', ( #38 ), #168, .F. ) ;
#181 =( GEOMETRIC_REPRESENTATION_CONTEXT ( 3 ) GLOBAL_UNCERTAINTY_ASSIGNED_CONTEXT ( ( #197 ) ) GLOBAL_UNIT_ASSIGNED_CONTEXT ( ( #200, #55, #21 ) ) REPRESENTATION_CONTEXT ( 'NONE', 'WORKASPACE' ) );
#182 = AXIS2_PLACEMENT_3D ( 'NONE', #13, #6, #28 ) ;
#183 =( NAMED_UNIT ( * ) PLANE_ANGLE_UNIT ( ) SI_UNIT ( $, .RADIAN. ) );
#184 =( NAMED_UNIT ( * ) SI_UNIT ( $, .STERADIAN. ) SOLID_ANGLE_UNIT ( ) );
#185 = EDGE_LOOP ( 'NONE', ( #96 ) ) ;
#186 = EDGE_CURVE ( 'NONE', #10, #10, #106, .T. ) ;
#187 = CARTESIAN_POINT ( 'NONE',  ( 47.99999999999998579, 0.0000000000000000000, -5.350000000000007638 ) ) ;
#188 = EDGE_LOOP ( 'NONE', ( #131 ) ) ;
#189 = DIRECTION ( 'NONE',  ( 0.0000000000000000000, 0.0000000000000000000, 1.000000000000000000 ) ) ;
#190 = STYLED_ITEM ( 'NONE', ( #11 ), #91 ) ;
#191 = DIRECTION ( 'NONE',  ( 0.0000000000000000000, 0.0000000000000000000, 1.000000000000000000 ) ) ;
#192 = ORIENTED_EDGE ( 'NONE', *, *, #64, .F. ) ;
#193 = COLOUR_RGB ( '',0.7921568627450980005, 0.8196078431372548767, 0.9333333333333333481 ) ;
#194 = AXIS2_PLACEMENT_3D ( 'NONE', #110, #74, #128 ) ;
#195 =( NAMED_UNIT ( * ) SI_UNIT ( $, .STERADIAN. ) SOLID_ANGLE_UNIT ( ) );
#196 = ORIENTED_EDGE ( 'NONE', *, *, #64, .T. ) ;
#197 = UNCERTAINTY_MEASURE_WITH_UNIT (LENGTH_MEASURE( 1.000000000000000082E-05 ), #200, 'distance_accuracy_value', 'NONE');
#198 =( LENGTH_UNIT ( ) NAMED_UNIT ( * ) SI_UNIT ( .MILLI., .METRE. ) );
#199 = ADVANCED_FACE ( 'NONE', ( #43 ), #166, .T. ) ;
#200 =( LENGTH_UNIT ( ) NAMED_UNIT ( * ) SI_UNIT ( .MILLI., .METRE. ) );
#201 = CARTESIAN_POINT ( 'NONE',  ( 0.0000000000000000000, 0.0000000000000000000, 0.0000000000000000000 ) ) ;
#202 = MECHANICAL_DESIGN_GEOMETRIC_PRESENTATION_REPRESENTATION (  '', ( #190 ), #164 ) ;
#203 = DIRECTION ( 'NONE',  ( 0.0000000000000000000, 0.0000000000000000000, -1.000000000000000000 ) ) ;
#204 = AXIS2_PLACEMENT_3D ( 'NONE', #139, #69, #36 ) ;
#205 = UNCERTAINTY_MEASURE_WITH_UNIT (LENGTH_MEASURE( 1.000000000000000082E-05 ), #60, 'distance_accuracy_value', 'NONE');
#206 = CARTESIAN_POINT ( 'NONE',  ( 47.99999999999998579, 0.0000000000000000000, -5.350000000000007638 ) ) ;
#207 = CARTESIAN_POINT ( 'NONE',  ( 1.070000000000003615, 0.0000000000000000000, -5.350000000000007638 ) ) ;
#208 = APPLICATION_CONTEXT ( 'automotive_design' ) ;
#209 = PRODUCT_CONTEXT ( 'NONE', #208, 'mechanical' ) ;
#210 = PRESENTATION_STYLE_ASSIGNMENT (( #149 ) ) ;
#211 = SURFACE_STYLE_FILL_AREA ( #136 ) ;
#212 = UNCERTAINTY_MEASURE_WITH_UNIT (LENGTH_MEASURE( 1.000000000000000082E-05 ), #16, 'distance_accuracy_value', 'NONE');
#213 = PRODUCT_DEFINITION ( 'UNKNOWN', '', #80, #138 ) ;
ENDSEC;
END-ISO-10303-21;
