ISO-10303-21;
HEADER;
FILE_DESCRIPTION (( 'STEP AP214' ),
    '1' );
FILE_NAME ('03-1715.STEP',
    '2021-10-01T05:48:08',
    ( 'USER' ),
    ( '' ),
    'SwSTEP 2.0',
    'SolidWorks 2018',
    '' );
FILE_SCHEMA (( 'AUTOMOTIVE_DESIGN' ));
ENDSEC;

DATA;
#1 =( LENGTH_UNIT ( ) NAMED_UNIT ( * ) SI_UNIT ( .MILLI., .METRE. ) );
#2 = FILL_AREA_STYLE_COLOUR ( '', #145 ) ;
#3 = SURFACE_STYLE_FILL_AREA ( #170 ) ;
#4 = ORIENTED_EDGE ( 'NONE', *, *, #48, .F. ) ;
#5 = AXIS2_PLACEMENT_3D ( 'NONE', #208, #132, #148 ) ;
#6 = MECHANICAL_DESIGN_GEOMETRIC_PRESENTATION_REPRESENTATION (  '', ( #124 ), #116 ) ;
#7 = APPLICATION_CONTEXT ( 'automotive_design' ) ;
#8 =( LENGTH_UNIT ( ) NAMED_UNIT ( * ) SI_UNIT ( .MILLI., .METRE. ) );
#9 = EDGE_LOOP ( 'NONE', ( #4 ) ) ;
#10 = CARTESIAN_POINT ( 'NONE',  ( 47.99999999999998579, 0.0000000000000000000, 0.0000000000000000000 ) ) ;
#11 = FILL_AREA_STYLE ('',( #192 ) ) ;
#12 = DIRECTION ( 'NONE',  ( 0.0000000000000000000, 0.0000000000000000000, -1.000000000000000000 ) ) ;
#13 = AXIS2_PLACEMENT_3D ( 'NONE', #196, #157, #86 ) ;
#14 = PLANE ( 'NONE',  #5 ) ;
#15 = DIRECTION ( 'NONE',  ( 1.000000000000000000, 0.0000000000000000000, 0.0000000000000000000 ) ) ;
#16 = CARTESIAN_POINT ( 'NONE',  ( 139.7425360850666038, 0.0000000000000000000, 5.450000000000017053 ) ) ;
#17 = ADVANCED_FACE ( 'NONE', ( #185 ), #60, .F. ) ;
#18 = COLOUR_RGB ( '',1.000000000000000000, 1.000000000000000000, 0.0000000000000000000 ) ;
#19 = AXIS2_PLACEMENT_3D ( 'NONE', #76, #91, #113 ) ;
#20 = UNCERTAINTY_MEASURE_WITH_UNIT (LENGTH_MEASURE( 1.000000000000000082E-05 ), #8, 'distance_accuracy_value', 'NONE');
#21 = EDGE_CURVE ( 'NONE', #45, #45, #107, .T. ) ;
#22 =( NAMED_UNIT ( * ) PLANE_ANGLE_UNIT ( ) SI_UNIT ( $, .RADIAN. ) );
#23 = SHAPE_DEFINITION_REPRESENTATION ( #213, #143 ) ;
#24 = SURFACE_STYLE_USAGE ( .BOTH. , #139 ) ;
#25 = DIRECTION ( 'NONE',  ( 0.0000000000000000000, 0.0000000000000000000, 1.000000000000000000 ) ) ;
#26 = FACE_OUTER_BOUND ( 'NONE', #105, .T. ) ;
#27 = PRESENTATION_STYLE_ASSIGNMENT (( #24 ) ) ;
#28 = DIRECTION ( 'NONE',  ( 1.000000000000000000, 0.0000000000000000000, 0.0000000000000000000 ) ) ;
#29 = AXIS2_PLACEMENT_3D ( 'NONE', #44, #15, #181 ) ;
#30 = CARTESIAN_POINT ( 'NONE',  ( 0.0000000000000000000, 0.0000000000000000000, 0.0000000000000000000 ) ) ;
#31 = PRESENTATION_STYLE_ASSIGNMENT (( #173 ) ) ;
#32 = CIRCLE ( 'NONE', #147, 5.450000000000009059 ) ;
#33 = ORIENTED_EDGE ( 'NONE', *, *, #21, .T. ) ;
#34 = EDGE_CURVE ( 'NONE', #164, #164, #68, .T. ) ;
#35 = SURFACE_SIDE_STYLE ('',( #160 ) ) ;
#36 = CARTESIAN_POINT ( 'NONE',  ( 47.99999999999998579, 0.0000000000000000000, -5.450000000000009059 ) ) ;
#37 = PRESENTATION_STYLE_ASSIGNMENT (( #38 ) ) ;
#38 = SURFACE_STYLE_USAGE ( .BOTH. , #201 ) ;
#39 = AXIS2_PLACEMENT_3D ( 'NONE', #149, #150, #131 ) ;
#40 = FACE_OUTER_BOUND ( 'NONE', #134, .T. ) ;
#41 = FACE_OUTER_BOUND ( 'NONE', #9, .T. ) ;
#42 = FILL_AREA_STYLE_COLOUR ( '', #171 ) ;
#43 = PRODUCT_DEFINITION ( 'UNKNOWN', '', #207, #125 ) ;
#44 = CARTESIAN_POINT ( 'NONE',  ( -3.337162527676537619E-16, 5.449999999999999289, 0.0000000000000000000 ) ) ;
#45 = VERTEX_POINT ( 'NONE', #16 ) ;
#46 =( NAMED_UNIT ( * ) SI_UNIT ( $, .STERADIAN. ) SOLID_ANGLE_UNIT ( ) );
#47 = VERTEX_POINT ( 'NONE', #210 ) ;
#48 = EDGE_CURVE ( 'NONE', #47, #47, #117, .T. ) ;
#49 = VERTEX_POINT ( 'NONE', #178 ) ;
#50 = CLOSED_SHELL ( 'NONE', ( #211, #198, #154 ) ) ;
#51 = EDGE_LOOP ( 'NONE', ( #140 ) ) ;
#52 = VERTEX_POINT ( 'NONE', #36 ) ;
#53 = SURFACE_SIDE_STYLE ('',( #114 ) ) ;
#54 = FACE_BOUND ( 'NONE', #174, .T. ) ;
#55 = FILL_AREA_STYLE_COLOUR ( '', #18 ) ;
#56 = DIRECTION ( 'NONE',  ( 0.0000000000000000000, 0.0000000000000000000, -1.000000000000000000 ) ) ;
#57 =( LENGTH_UNIT ( ) NAMED_UNIT ( * ) SI_UNIT ( .MILLI., .METRE. ) );
#58 = ORIENTED_EDGE ( 'NONE', *, *, #119, .T. ) ;
#59 = DIRECTION ( 'NONE',  ( 1.000000000000000000, 0.0000000000000000000, 0.0000000000000000000 ) ) ;
#60 = PLANE ( 'NONE',  #29 ) ;
#61 = STYLED_ITEM ( 'NONE', ( #71 ), #198 ) ;
#62 = FILL_AREA_STYLE ('',( #55 ) ) ;
#63 = ORIENTED_EDGE ( 'NONE', *, *, #129, .T. ) ;
#64 = DIRECTION ( 'NONE',  ( 0.0000000000000000000, 0.0000000000000000000, -1.000000000000000000 ) ) ;
#65 =( GEOMETRIC_REPRESENTATION_CONTEXT ( 3 ) GLOBAL_UNCERTAINTY_ASSIGNED_CONTEXT ( ( #20 ) ) GLOBAL_UNIT_ASSIGNED_CONTEXT ( ( #8, #128, #144 ) ) REPRESENTATION_CONTEXT ( 'NONE', 'WORKASPACE' ) );
#66 = MANIFOLD_SOLID_BREP ( 'ºÐÇÒ2[2]', #50 ) ;
#67 = PRESENTATION_LAYER_ASSIGNMENT (  '', '', ( #75 ) ) ;
#68 = CIRCLE ( 'NONE', #205, 4.360000000000002984 ) ;
#69 = DIRECTION ( 'NONE',  ( -1.000000000000000000, -0.0000000000000000000, -0.0000000000000000000 ) ) ;
#70 = PRESENTATION_LAYER_ASSIGNMENT (  '', '', ( #61 ) ) ;
#71 = PRESENTATION_STYLE_ASSIGNMENT (( #167 ) ) ;
#72 = CYLINDRICAL_SURFACE ( 'NONE', #161, 5.450000000000009059 ) ;
#73 = ADVANCED_FACE ( 'NONE', ( #26 ), #89, .T. ) ;
#74 = FILL_AREA_STYLE_COLOUR ( '', #152 ) ;
#75 = STYLED_ITEM ( 'NONE', ( #31 ), #193 ) ;
#76 = CARTESIAN_POINT ( 'NONE',  ( -858.0000000000000000, 0.0000000000000000000, 0.0000000000000000000 ) ) ;
#77 = CARTESIAN_POINT ( 'NONE',  ( 1.090000000000021174, 0.0000000000000000000, 0.0000000000000000000 ) ) ;
#78 = APPLICATION_PROTOCOL_DEFINITION ( 'draft international standard', 'automotive_design', 1998, #158 ) ;
#79 = CYLINDRICAL_SURFACE ( 'NONE', #172, 5.450000000000009059 ) ;
#80 = FACE_OUTER_BOUND ( 'NONE', #90, .T. ) ;
#81 = PRESENTATION_LAYER_ASSIGNMENT (  '', '', ( #94 ) ) ;
#82 = FACE_OUTER_BOUND ( 'NONE', #51, .T. ) ;
#83 = MECHANICAL_DESIGN_GEOMETRIC_PRESENTATION_REPRESENTATION (  '', ( #135 ), #65 ) ;
#84 = EDGE_LOOP ( 'NONE', ( #180 ) ) ;
#85 = EDGE_LOOP ( 'NONE', ( #165 ) ) ;
#86 = DIRECTION ( 'NONE',  ( 0.0000000000000000000, 0.0000000000000000000, -1.000000000000000000 ) ) ;
#87 =( GEOMETRIC_REPRESENTATION_CONTEXT ( 3 ) GLOBAL_UNCERTAINTY_ASSIGNED_CONTEXT ( ( #100 ) ) GLOBAL_UNIT_ASSIGNED_CONTEXT ( ( #57, #22, #182 ) ) REPRESENTATION_CONTEXT ( 'NONE', 'WORKASPACE' ) );
#88 = ADVANCED_FACE ( 'NONE', ( #202, #54 ), #197, .T. ) ;
#89 = PLANE ( 'NONE',  #112 ) ;
#90 = EDGE_LOOP ( 'NONE', ( #63 ) ) ;
#91 = DIRECTION ( 'NONE',  ( -1.000000000000000000, -0.0000000000000000000, -0.0000000000000000000 ) ) ;
#92 = UNCERTAINTY_MEASURE_WITH_UNIT (LENGTH_MEASURE( 1.000000000000000082E-05 ), #146, 'distance_accuracy_value', 'NONE');
#93 = DIRECTION ( 'NONE',  ( 0.0000000000000000000, 0.0000000000000000000, 1.000000000000000000 ) ) ;
#94 = STYLED_ITEM ( 'NONE', ( #27 ), #143 ) ;
#95 =( NAMED_UNIT ( * ) SI_UNIT ( $, .STERADIAN. ) SOLID_ANGLE_UNIT ( ) );
#96 = EDGE_LOOP ( 'NONE', ( #212 ) ) ;
#97 = DIRECTION ( 'NONE',  ( 0.0000000000000000000, 0.0000000000000000000, 1.000000000000000000 ) ) ;
#98 = MECHANICAL_DESIGN_GEOMETRIC_PRESENTATION_REPRESENTATION (  '', ( #61 ), #87 ) ;
#99 =( NAMED_UNIT ( * ) PLANE_ANGLE_UNIT ( ) SI_UNIT ( $, .RADIAN. ) );
#100 = UNCERTAINTY_MEASURE_WITH_UNIT (LENGTH_MEASURE( 1.000000000000000082E-05 ), #57, 'distance_accuracy_value', 'NONE');
#101 = CARTESIAN_POINT ( 'NONE',  ( 47.99999999999998579, 0.0000000000000000000, 0.0000000000000000000 ) ) ;
#102 = DIRECTION ( 'NONE',  ( -1.000000000000000000, -0.0000000000000000000, -0.0000000000000000000 ) ) ;
#103 =( GEOMETRIC_REPRESENTATION_CONTEXT ( 3 ) GLOBAL_UNCERTAINTY_ASSIGNED_CONTEXT ( ( #175 ) ) GLOBAL_UNIT_ASSIGNED_CONTEXT ( ( #191, #99, #111 ) ) REPRESENTATION_CONTEXT ( 'NONE', 'WORKASPACE' ) );
#104 = CARTESIAN_POINT ( 'NONE',  ( -3.337162527676537619E-16, 0.0000000000000000000, 0.0000000000000000000 ) ) ;
#105 = EDGE_LOOP ( 'NONE', ( #58 ) ) ;
#106 =( NAMED_UNIT ( * ) PLANE_ANGLE_UNIT ( ) SI_UNIT ( $, .RADIAN. ) );
#107 = CIRCLE ( 'NONE', #39, 5.450000000000017053 ) ;
#108 = PRODUCT_CONTEXT ( 'NONE', #158, 'mechanical' ) ;
#109 = UNCERTAINTY_MEASURE_WITH_UNIT (LENGTH_MEASURE( 1.000000000000000082E-05 ), #1, 'distance_accuracy_value', 'NONE');
#110 = MECHANICAL_DESIGN_GEOMETRIC_PRESENTATION_REPRESENTATION (  '', ( #94 ), #169 ) ;
#111 =( NAMED_UNIT ( * ) SI_UNIT ( $, .STERADIAN. ) SOLID_ANGLE_UNIT ( ) );
#112 = AXIS2_PLACEMENT_3D ( 'NONE', #10, #28, #12 ) ;
#113 = DIRECTION ( 'NONE',  ( 0.0000000000000000000, 0.0000000000000000000, 1.000000000000000000 ) ) ;
#114 = SURFACE_STYLE_FILL_AREA ( #11 ) ;
#115 = FACE_OUTER_BOUND ( 'NONE', #126, .T. ) ;
#116 =( GEOMETRIC_REPRESENTATION_CONTEXT ( 3 ) GLOBAL_UNCERTAINTY_ASSIGNED_CONTEXT ( ( #118 ) ) GLOBAL_UNIT_ASSIGNED_CONTEXT ( ( #163, #176, #46 ) ) REPRESENTATION_CONTEXT ( 'NONE', 'WORKASPACE' ) );
#117 = CIRCLE ( 'NONE', #13, 5.450000000000009059 ) ;
#118 = UNCERTAINTY_MEASURE_WITH_UNIT (LENGTH_MEASURE( 1.000000000000000082E-05 ), #163, 'distance_accuracy_value', 'NONE');
#119 = EDGE_CURVE ( 'NONE', #52, #52, #32, .T. ) ;
#120 = PRODUCT_RELATED_PRODUCT_CATEGORY ( 'part', '', ( #142 ) ) ;
#121 =( NAMED_UNIT ( * ) SI_UNIT ( $, .STERADIAN. ) SOLID_ANGLE_UNIT ( ) );
#122 = CONICAL_SURFACE ( 'NONE', #19, 2414.213562373075092, 1.178097245096169532 ) ;
#123 = ORIENTED_EDGE ( 'NONE', *, *, #21, .F. ) ;
#124 = STYLED_ITEM ( 'NONE', ( #37 ), #66 ) ;
#125 = PRODUCT_DEFINITION_CONTEXT ( 'detailed design', #7, 'design' ) ;
#126 = EDGE_LOOP ( 'NONE', ( #123 ) ) ;
#127 = APPLICATION_PROTOCOL_DEFINITION ( 'draft international standard', 'automotive_design', 1998, #7 ) ;
#128 =( NAMED_UNIT ( * ) PLANE_ANGLE_UNIT ( ) SI_UNIT ( $, .RADIAN. ) );
#129 = EDGE_CURVE ( 'NONE', #49, #49, #151, .T. ) ;
#130 = AXIS2_PLACEMENT_3D ( 'NONE', #30, #97, #204 ) ;
#131 = DIRECTION ( 'NONE',  ( 0.0000000000000000000, 0.0000000000000000000, 1.000000000000000000 ) ) ;
#132 = DIRECTION ( 'NONE',  ( 1.000000000000000000, 0.0000000000000000000, 0.0000000000000000000 ) ) ;
#133 = ADVANCED_FACE ( 'NONE', ( #80, #82 ), #72, .T. ) ;
#134 = EDGE_LOOP ( 'NONE', ( #33 ) ) ;
#135 = STYLED_ITEM ( 'NONE', ( #162 ), #154 ) ;
#136 = DIRECTION ( 'NONE',  ( 0.0000000000000000000, 0.0000000000000000000, -1.000000000000000000 ) ) ;
#137 = DIRECTION ( 'NONE',  ( 1.000000000000000000, 0.0000000000000000000, 0.0000000000000000000 ) ) ;
#138 = DIRECTION ( 'NONE',  ( -1.000000000000000000, -0.0000000000000000000, -0.0000000000000000000 ) ) ;
#139 = SURFACE_SIDE_STYLE ('',( #3 ) ) ;
#140 = ORIENTED_EDGE ( 'NONE', *, *, #119, .F. ) ;
#141 = CARTESIAN_POINT ( 'NONE',  ( -3.337162527676537619E-16, 0.0000000000000000000, 0.0000000000000000000 ) ) ;
#142 = PRODUCT ( '03-1715', '03-1715', '', ( #108 ) ) ;
#143 = ADVANCED_BREP_SHAPE_REPRESENTATION ( '03-1715', ( #193, #66, #130 ), #155 ) ;
#144 =( NAMED_UNIT ( * ) SI_UNIT ( $, .STERADIAN. ) SOLID_ANGLE_UNIT ( ) );
#145 = COLOUR_RGB ( '',0.7921568627450980005, 0.8196078431372548767, 0.9333333333333333481 ) ;
#146 =( LENGTH_UNIT ( ) NAMED_UNIT ( * ) SI_UNIT ( .MILLI., .METRE. ) );
#147 = AXIS2_PLACEMENT_3D ( 'NONE', #101, #137, #56 ) ;
#148 = DIRECTION ( 'NONE',  ( 0.0000000000000000000, 0.0000000000000000000, -1.000000000000000000 ) ) ;
#149 = CARTESIAN_POINT ( 'NONE',  ( 139.7425360850666038, 0.0000000000000000000, 0.0000000000000000000 ) ) ;
#150 = DIRECTION ( 'NONE',  ( -1.000000000000000000, -0.0000000000000000000, -0.0000000000000000000 ) ) ;
#151 = CIRCLE ( 'NONE', #186, 5.450000000000009059 ) ;
#152 = COLOUR_RGB ( '',1.000000000000000000, 1.000000000000000000, 0.0000000000000000000 ) ;
#153 = AXIS2_PLACEMENT_3D ( 'NONE', #141, #183, #136 ) ;
#154 = ADVANCED_FACE ( 'NONE', ( #115 ), #122, .T. ) ;
#155 =( GEOMETRIC_REPRESENTATION_CONTEXT ( 3 ) GLOBAL_UNCERTAINTY_ASSIGNED_CONTEXT ( ( #92 ) ) GLOBAL_UNIT_ASSIGNED_CONTEXT ( ( #146, #203, #95 ) ) REPRESENTATION_CONTEXT ( 'NONE', 'WORKASPACE' ) );
#156 = PRESENTATION_LAYER_ASSIGNMENT (  '', '', ( #124 ) ) ;
#157 = DIRECTION ( 'NONE',  ( 1.000000000000000000, 0.0000000000000000000, 0.0000000000000000000 ) ) ;
#158 = APPLICATION_CONTEXT ( 'automotive_design' ) ;
#159 = DIRECTION ( 'NONE',  ( 0.0000000000000000000, 0.0000000000000000000, -1.000000000000000000 ) ) ;
#160 = SURFACE_STYLE_FILL_AREA ( #62 ) ;
#161 = AXIS2_PLACEMENT_3D ( 'NONE', #184, #138, #93 ) ;
#162 = PRESENTATION_STYLE_ASSIGNMENT (( #206 ) ) ;
#163 =( LENGTH_UNIT ( ) NAMED_UNIT ( * ) SI_UNIT ( .MILLI., .METRE. ) );
#164 = VERTEX_POINT ( 'NONE', #179 ) ;
#165 = ORIENTED_EDGE ( 'NONE', *, *, #34, .T. ) ;
#166 = COLOUR_RGB ( '',0.7921568627450980005, 0.8196078431372548767, 0.9333333333333333481 ) ;
#167 = SURFACE_STYLE_USAGE ( .BOTH. , #194 ) ;
#168 = ORIENTED_EDGE ( 'NONE', *, *, #34, .F. ) ;
#169 =( GEOMETRIC_REPRESENTATION_CONTEXT ( 3 ) GLOBAL_UNCERTAINTY_ASSIGNED_CONTEXT ( ( #109 ) ) GLOBAL_UNIT_ASSIGNED_CONTEXT ( ( #1, #106, #121 ) ) REPRESENTATION_CONTEXT ( 'NONE', 'WORKASPACE' ) );
#170 = FILL_AREA_STYLE ('',( #42 ) ) ;
#171 = COLOUR_RGB ( '',0.7921568627450980005, 0.8196078431372548767, 0.9333333333333333481 ) ;
#172 = AXIS2_PLACEMENT_3D ( 'NONE', #188, #102, #25 ) ;
#173 = SURFACE_STYLE_USAGE ( .BOTH. , #53 ) ;
#174 = EDGE_LOOP ( 'NONE', ( #168 ) ) ;
#175 = UNCERTAINTY_MEASURE_WITH_UNIT (LENGTH_MEASURE( 1.000000000000000082E-05 ), #191, 'distance_accuracy_value', 'NONE');
#176 =( NAMED_UNIT ( * ) PLANE_ANGLE_UNIT ( ) SI_UNIT ( $, .RADIAN. ) );
#177 = FILL_AREA_STYLE ('',( #2 ) ) ;
#178 = CARTESIAN_POINT ( 'NONE',  ( 1.090000000000021174, 0.0000000000000000000, -5.450000000000009059 ) ) ;
#179 = CARTESIAN_POINT ( 'NONE',  ( -3.337162527676537619E-16, 0.0000000000000000000, -4.360000000000002984 ) ) ;
#180 = ORIENTED_EDGE ( 'NONE', *, *, #129, .F. ) ;
#181 = DIRECTION ( 'NONE',  ( 0.0000000000000000000, 0.0000000000000000000, -1.000000000000000000 ) ) ;
#182 =( NAMED_UNIT ( * ) SI_UNIT ( $, .STERADIAN. ) SOLID_ANGLE_UNIT ( ) );
#183 = DIRECTION ( 'NONE',  ( 1.000000000000000000, 0.0000000000000000000, 0.0000000000000000000 ) ) ;
#184 = CARTESIAN_POINT ( 'NONE',  ( 0.0000000000000000000, 0.0000000000000000000, 0.0000000000000000000 ) ) ;
#185 = FACE_OUTER_BOUND ( 'NONE', #85, .T. ) ;
#186 = AXIS2_PLACEMENT_3D ( 'NONE', #77, #59, #159 ) ;
#187 = CLOSED_SHELL ( 'NONE', ( #133, #17, #88, #73 ) ) ;
#188 = CARTESIAN_POINT ( 'NONE',  ( 0.0000000000000000000, 0.0000000000000000000, 0.0000000000000000000 ) ) ;
#189 = SURFACE_STYLE_FILL_AREA ( #177 ) ;
#190 = SURFACE_STYLE_FILL_AREA ( #199 ) ;
#191 =( LENGTH_UNIT ( ) NAMED_UNIT ( * ) SI_UNIT ( .MILLI., .METRE. ) );
#192 = FILL_AREA_STYLE_COLOUR ( '', #166 ) ;
#193 = MANIFOLD_SOLID_BREP ( 'ºÐÇÒ2[1]', #187 ) ;
#194 = SURFACE_SIDE_STYLE ('',( #190 ) ) ;
#195 = MECHANICAL_DESIGN_GEOMETRIC_PRESENTATION_REPRESENTATION (  '', ( #75 ), #103 ) ;
#196 = CARTESIAN_POINT ( 'NONE',  ( 47.99999999999998579, 0.0000000000000000000, 0.0000000000000000000 ) ) ;
#197 = CONICAL_SURFACE ( 'NONE', #153, 4.360000000000002984, 0.7853981633974411736 ) ;
#198 = ADVANCED_FACE ( 'NONE', ( #209, #40 ), #79, .T. ) ;
#199 = FILL_AREA_STYLE ('',( #74 ) ) ;
#200 = PRESENTATION_LAYER_ASSIGNMENT (  '', '', ( #135 ) ) ;
#201 = SURFACE_SIDE_STYLE ('',( #189 ) ) ;
#202 = FACE_OUTER_BOUND ( 'NONE', #84, .T. ) ;
#203 =( NAMED_UNIT ( * ) PLANE_ANGLE_UNIT ( ) SI_UNIT ( $, .RADIAN. ) );
#204 = DIRECTION ( 'NONE',  ( 1.000000000000000000, 0.0000000000000000000, 0.0000000000000000000 ) ) ;
#205 = AXIS2_PLACEMENT_3D ( 'NONE', #104, #69, #64 ) ;
#206 = SURFACE_STYLE_USAGE ( .BOTH. , #35 ) ;
#207 = PRODUCT_DEFINITION_FORMATION_WITH_SPECIFIED_SOURCE ( 'ANY', '', #142, .NOT_KNOWN. ) ;
#208 = CARTESIAN_POINT ( 'NONE',  ( 47.99999999999998579, 0.0000000000000000000, 0.0000000000000000000 ) ) ;
#209 = FACE_OUTER_BOUND ( 'NONE', #96, .T. ) ;
#210 = CARTESIAN_POINT ( 'NONE',  ( 47.99999999999998579, 0.0000000000000000000, -5.450000000000009059 ) ) ;
#211 = ADVANCED_FACE ( 'NONE', ( #41 ), #14, .F. ) ;
#212 = ORIENTED_EDGE ( 'NONE', *, *, #48, .T. ) ;
#213 = PRODUCT_DEFINITION_SHAPE ( 'NONE', 'NONE',  #43 ) ;
ENDSEC;
END-ISO-10303-21;
