ISO-10303-21;
HEADER;
FILE_DESCRIPTION (( 'STEP AP214' ),
    '1' );
FILE_NAME ('03-1716.STEP',
    '2021-10-01T05:48:27',
    ( 'USER' ),
    ( '' ),
    'SwSTEP 2.0',
    'SolidWorks 2018',
    '' );
FILE_SCHEMA (( 'AUTOMOTIVE_DESIGN' ));
ENDSEC;

DATA;
#1 = DIRECTION ( 'NONE',  ( 1.000000000000000000, 0.0000000000000000000, 0.0000000000000000000 ) ) ;
#2 = FILL_AREA_STYLE_COLOUR ( '', #18 ) ;
#3 = DIRECTION ( 'NONE',  ( 0.0000000000000000000, 0.0000000000000000000, -1.000000000000000000 ) ) ;
#4 = STYLED_ITEM ( 'NONE', ( #15 ), #16 ) ;
#5 = ADVANCED_FACE ( 'NONE', ( #200 ), #39, .T. ) ;
#6 = FILL_AREA_STYLE ('',( #2 ) ) ;
#7 = SURFACE_STYLE_FILL_AREA ( #6 ) ;
#8 = UNCERTAINTY_MEASURE_WITH_UNIT (LENGTH_MEASURE( 1.000000000000000082E-05 ), #50, 'distance_accuracy_value', 'NONE');
#9 = PRESENTATION_STYLE_ASSIGNMENT (( #34 ) ) ;
#10 =( LENGTH_UNIT ( ) NAMED_UNIT ( * ) SI_UNIT ( .MILLI., .METRE. ) );
#11 = EDGE_CURVE ( 'NONE', #143, #143, #112, .T. ) ;
#12 =( LENGTH_UNIT ( ) NAMED_UNIT ( * ) SI_UNIT ( .MILLI., .METRE. ) );
#13 =( NAMED_UNIT ( * ) PLANE_ANGLE_UNIT ( ) SI_UNIT ( $, .RADIAN. ) );
#14 = APPLICATION_PROTOCOL_DEFINITION ( 'draft international standard', 'automotive_design', 1998, #37 ) ;
#15 = PRESENTATION_STYLE_ASSIGNMENT (( #74 ) ) ;
#16 = MANIFOLD_SOLID_BREP ( 'ºÐÇÒ2[2]', #166 ) ;
#17 =( NAMED_UNIT ( * ) SI_UNIT ( $, .STERADIAN. ) SOLID_ANGLE_UNIT ( ) );
#18 = COLOUR_RGB ( '',0.7921568627450980005, 0.8196078431372548767, 0.9333333333333333481 ) ;
#19 = SURFACE_SIDE_STYLE ('',( #155 ) ) ;
#20 = EDGE_LOOP ( 'NONE', ( #84 ) ) ;
#21 = SURFACE_STYLE_USAGE ( .BOTH. , #19 ) ;
#22 = PLANE ( 'NONE',  #122 ) ;
#23 = ORIENTED_EDGE ( 'NONE', *, *, #145, .T. ) ;
#24 =( LENGTH_UNIT ( ) NAMED_UNIT ( * ) SI_UNIT ( .MILLI., .METRE. ) );
#25 = EDGE_CURVE ( 'NONE', #213, #213, #106, .T. ) ;
#26 =( NAMED_UNIT ( * ) PLANE_ANGLE_UNIT ( ) SI_UNIT ( $, .RADIAN. ) );
#27 = DIRECTION ( 'NONE',  ( 0.0000000000000000000, 0.0000000000000000000, 1.000000000000000000 ) ) ;
#28 = PRODUCT ( '03-1716', '03-1716', '', ( #182 ) ) ;
#29 = CARTESIAN_POINT ( 'NONE',  ( 1.100000000000064038, 0.0000000000000000000, -5.500000000000007994 ) ) ;
#30 = CLOSED_SHELL ( 'NONE', ( #42, #128, #209, #5 ) ) ;
#31 = DIRECTION ( 'NONE',  ( 1.000000000000000000, 0.0000000000000000000, 0.0000000000000000000 ) ) ;
#32 =( NAMED_UNIT ( * ) SI_UNIT ( $, .STERADIAN. ) SOLID_ANGLE_UNIT ( ) );
#33 = DIRECTION ( 'NONE',  ( 1.000000000000000000, 0.0000000000000000000, 0.0000000000000000000 ) ) ;
#34 = SURFACE_STYLE_USAGE ( .BOTH. , #162 ) ;
#35 = PRESENTATION_LAYER_ASSIGNMENT (  '', '', ( #4 ) ) ;
#36 = CARTESIAN_POINT ( 'NONE',  ( 47.99999999999998579, 0.0000000000000000000, 0.0000000000000000000 ) ) ;
#37 = APPLICATION_CONTEXT ( 'automotive_design' ) ;
#38 = FILL_AREA_STYLE ('',( #57 ) ) ;
#39 = PLANE ( 'NONE',  #51 ) ;
#40 = EDGE_CURVE ( 'NONE', #88, #88, #49, .T. ) ;
#41 = DIRECTION ( 'NONE',  ( 0.0000000000000000000, 0.0000000000000000000, -1.000000000000000000 ) ) ;
#42 = ADVANCED_FACE ( 'NONE', ( #118, #119 ), #116, .T. ) ;
#43 = ADVANCED_BREP_SHAPE_REPRESENTATION ( '03-1716', ( #125, #16, #161 ), #183 ) ;
#44 = CARTESIAN_POINT ( 'NONE',  ( 47.99999999999998579, 0.0000000000000000000, 0.0000000000000000000 ) ) ;
#45 = COLOUR_RGB ( '',1.000000000000000000, 1.000000000000000000, 0.0000000000000000000 ) ;
#46 = PRODUCT_DEFINITION_CONTEXT ( 'detailed design', #104, 'design' ) ;
#47 = ORIENTED_EDGE ( 'NONE', *, *, #25, .T. ) ;
#48 = FACE_OUTER_BOUND ( 'NONE', #186, .T. ) ;
#49 = CIRCLE ( 'NONE', #205, 5.500000000000007994 ) ;
#50 =( LENGTH_UNIT ( ) NAMED_UNIT ( * ) SI_UNIT ( .MILLI., .METRE. ) );
#51 = AXIS2_PLACEMENT_3D ( 'NONE', #36, #1, #3 ) ;
#52 = CARTESIAN_POINT ( 'NONE',  ( 139.7218254069479428, 0.0000000000000000000, 5.500000000000016875 ) ) ;
#53 = CIRCLE ( 'NONE', #211, 5.500000000000007994 ) ;
#54 = CARTESIAN_POINT ( 'NONE',  ( 47.99999999999998579, 0.0000000000000000000, -5.500000000000007994 ) ) ;
#55 = COLOUR_RGB ( '',1.000000000000000000, 1.000000000000000000, 0.0000000000000000000 ) ;
#56 = SURFACE_SIDE_STYLE ('',( #138 ) ) ;
#57 = FILL_AREA_STYLE_COLOUR ( '', #55 ) ;
#58 = EDGE_CURVE ( 'NONE', #95, #95, #53, .T. ) ;
#59 = DIRECTION ( 'NONE',  ( 0.0000000000000000000, 0.0000000000000000000, 1.000000000000000000 ) ) ;
#60 =( NAMED_UNIT ( * ) SI_UNIT ( $, .STERADIAN. ) SOLID_ANGLE_UNIT ( ) );
#61 = FILL_AREA_STYLE_COLOUR ( '', #170 ) ;
#62 = DIRECTION ( 'NONE',  ( 0.0000000000000000000, 0.0000000000000000000, 1.000000000000000000 ) ) ;
#63 = DIRECTION ( 'NONE',  ( -1.000000000000000000, -0.0000000000000000000, -0.0000000000000000000 ) ) ;
#64 = MECHANICAL_DESIGN_GEOMETRIC_PRESENTATION_REPRESENTATION (  '', ( #168 ), #198 ) ;
#65 = DIRECTION ( 'NONE',  ( 1.000000000000000000, 0.0000000000000000000, 0.0000000000000000000 ) ) ;
#66 = ADVANCED_FACE ( 'NONE', ( #48, #165 ), #212, .T. ) ;
#67 = CIRCLE ( 'NONE', #114, 5.500000000000007994 ) ;
#68 = DIRECTION ( 'NONE',  ( 0.0000000000000000000, 0.0000000000000000000, -1.000000000000000000 ) ) ;
#69 = CARTESIAN_POINT ( 'NONE',  ( -3.367778697655221998E-16, 0.0000000000000000000, -4.399999999999945288 ) ) ;
#70 =( NAMED_UNIT ( * ) PLANE_ANGLE_UNIT ( ) SI_UNIT ( $, .RADIAN. ) );
#71 =( NAMED_UNIT ( * ) SI_UNIT ( $, .STERADIAN. ) SOLID_ANGLE_UNIT ( ) );
#72 = FACE_BOUND ( 'NONE', #176, .T. ) ;
#73 =( NAMED_UNIT ( * ) SI_UNIT ( $, .STERADIAN. ) SOLID_ANGLE_UNIT ( ) );
#74 = SURFACE_STYLE_USAGE ( .BOTH. , #56 ) ;
#75 = CARTESIAN_POINT ( 'NONE',  ( 139.7218254069479428, 0.0000000000000000000, 0.0000000000000000000 ) ) ;
#76 = DIRECTION ( 'NONE',  ( 0.0000000000000000000, 0.0000000000000000000, 1.000000000000000000 ) ) ;
#77 = PRODUCT_DEFINITION ( 'UNKNOWN', '', #201, #46 ) ;
#78 = DIRECTION ( 'NONE',  ( 0.0000000000000000000, 0.0000000000000000000, -1.000000000000000000 ) ) ;
#79 = CARTESIAN_POINT ( 'NONE',  ( -3.367778697655221998E-16, 5.500000000000000888, 0.0000000000000000000 ) ) ;
#80 = DIRECTION ( 'NONE',  ( -1.000000000000000000, -0.0000000000000000000, -0.0000000000000000000 ) ) ;
#81 = COLOUR_RGB ( '',0.7921568627450980005, 0.8196078431372548767, 0.9333333333333333481 ) ;
#82 = DIRECTION ( 'NONE',  ( 1.000000000000000000, 0.0000000000000000000, 0.0000000000000000000 ) ) ;
#83 = AXIS2_PLACEMENT_3D ( 'NONE', #159, #85, #27 ) ;
#84 = ORIENTED_EDGE ( 'NONE', *, *, #11, .F. ) ;
#85 = DIRECTION ( 'NONE',  ( -1.000000000000000000, -0.0000000000000000000, -0.0000000000000000000 ) ) ;
#86 =( NAMED_UNIT ( * ) SI_UNIT ( $, .STERADIAN. ) SOLID_ANGLE_UNIT ( ) );
#87 = PRESENTATION_STYLE_ASSIGNMENT (( #100 ) ) ;
#88 = VERTEX_POINT ( 'NONE', #54 ) ;
#89 = ORIENTED_EDGE ( 'NONE', *, *, #58, .T. ) ;
#90 = FILL_AREA_STYLE ('',( #61 ) ) ;
#91 = CARTESIAN_POINT ( 'NONE',  ( -3.367778697655221998E-16, 0.0000000000000000000, 0.0000000000000000000 ) ) ;
#92 = ADVANCED_FACE ( 'NONE', ( #199 ), #131, .T. ) ;
#93 = VERTEX_POINT ( 'NONE', #207 ) ;
#94 = ADVANCED_FACE ( 'NONE', ( #164 ), #22, .F. ) ;
#95 = VERTEX_POINT ( 'NONE', #29 ) ;
#96 = PRESENTATION_LAYER_ASSIGNMENT (  '', '', ( #108 ) ) ;
#97 = AXIS2_PLACEMENT_3D ( 'NONE', #175, #63, #181 ) ;
#98 = UNCERTAINTY_MEASURE_WITH_UNIT (LENGTH_MEASURE( 1.000000000000000082E-05 ), #12, 'distance_accuracy_value', 'NONE');
#99 = SURFACE_SIDE_STYLE ('',( #7 ) ) ;
#100 = SURFACE_STYLE_USAGE ( .BOTH. , #99 ) ;
#101 = ORIENTED_EDGE ( 'NONE', *, *, #11, .T. ) ;
#102 = CONICAL_SURFACE ( 'NONE', #160, 4.399999999999945288, 0.7853981633974473908 ) ;
#103 = AXIS2_PLACEMENT_3D ( 'NONE', #75, #80, #76 ) ;
#104 = APPLICATION_CONTEXT ( 'automotive_design' ) ;
#105 = SHAPE_DEFINITION_REPRESENTATION ( #152, #43 ) ;
#106 = CIRCLE ( 'NONE', #208, 4.399999999999945288 ) ;
#107 = DIRECTION ( 'NONE',  ( 0.0000000000000000000, 0.0000000000000000000, -1.000000000000000000 ) ) ;
#108 = STYLED_ITEM ( 'NONE', ( #144 ), #43 ) ;
#109 = CARTESIAN_POINT ( 'NONE',  ( 47.99999999999998579, 0.0000000000000000000, 0.0000000000000000000 ) ) ;
#110 = FILL_AREA_STYLE ('',( #142 ) ) ;
#111 =( LENGTH_UNIT ( ) NAMED_UNIT ( * ) SI_UNIT ( .MILLI., .METRE. ) );
#112 = CIRCLE ( 'NONE', #103, 5.500000000000016875 ) ;
#113 = CARTESIAN_POINT ( 'NONE',  ( -3.367778697655221998E-16, 0.0000000000000000000, 0.0000000000000000000 ) ) ;
#114 = AXIS2_PLACEMENT_3D ( 'NONE', #44, #65, #68 ) ;
#115 = DIRECTION ( 'NONE',  ( 0.0000000000000000000, 0.0000000000000000000, -1.000000000000000000 ) ) ;
#116 = CYLINDRICAL_SURFACE ( 'NONE', #132, 5.500000000000007994 ) ;
#117 = DIRECTION ( 'NONE',  ( 0.0000000000000000000, 0.0000000000000000000, -1.000000000000000000 ) ) ;
#118 = FACE_OUTER_BOUND ( 'NONE', #137, .T. ) ;
#119 = FACE_OUTER_BOUND ( 'NONE', #197, .T. ) ;
#120 = ORIENTED_EDGE ( 'NONE', *, *, #145, .F. ) ;
#121 = DIRECTION ( 'NONE',  ( -1.000000000000000000, -0.0000000000000000000, -0.0000000000000000000 ) ) ;
#122 = AXIS2_PLACEMENT_3D ( 'NONE', #172, #31, #78 ) ;
#123 = PRESENTATION_STYLE_ASSIGNMENT (( #21 ) ) ;
#124 = EDGE_LOOP ( 'NONE', ( #101 ) ) ;
#125 = MANIFOLD_SOLID_BREP ( 'ºÐÇÒ2[1]', #30 ) ;
#126 = CARTESIAN_POINT ( 'NONE',  ( 0.0000000000000000000, 0.0000000000000000000, 0.0000000000000000000 ) ) ;
#127 = ORIENTED_EDGE ( 'NONE', *, *, #40, .T. ) ;
#128 = ADVANCED_FACE ( 'NONE', ( #185 ), #146, .F. ) ;
#129 = MECHANICAL_DESIGN_GEOMETRIC_PRESENTATION_REPRESENTATION (  '', ( #108 ), #147 ) ;
#130 = SURFACE_STYLE_FILL_AREA ( #174 ) ;
#131 = CONICAL_SURFACE ( 'NONE', #83, 2414.213562373078275, 1.178097245096169976 ) ;
#132 = AXIS2_PLACEMENT_3D ( 'NONE', #126, #121, #62 ) ;
#133 =( GEOMETRIC_REPRESENTATION_CONTEXT ( 3 ) GLOBAL_UNCERTAINTY_ASSIGNED_CONTEXT ( ( #187 ) ) GLOBAL_UNIT_ASSIGNED_CONTEXT ( ( #111, #70, #73 ) ) REPRESENTATION_CONTEXT ( 'NONE', 'WORKASPACE' ) );
#134 = EDGE_LOOP ( 'NONE', ( #191 ) ) ;
#135 = UNCERTAINTY_MEASURE_WITH_UNIT (LENGTH_MEASURE( 1.000000000000000082E-05 ), #210, 'distance_accuracy_value', 'NONE');
#136 = DIRECTION ( 'NONE',  ( 0.0000000000000000000, 0.0000000000000000000, -1.000000000000000000 ) ) ;
#137 = EDGE_LOOP ( 'NONE', ( #89 ) ) ;
#138 = SURFACE_STYLE_FILL_AREA ( #90 ) ;
#139 = SURFACE_SIDE_STYLE ('',( #190 ) ) ;
#140 = MECHANICAL_DESIGN_GEOMETRIC_PRESENTATION_REPRESENTATION (  '', ( #180 ), #133 ) ;
#141 = MECHANICAL_DESIGN_GEOMETRIC_PRESENTATION_REPRESENTATION (  '', ( #4 ), #177 ) ;
#142 = FILL_AREA_STYLE_COLOUR ( '', #81 ) ;
#143 = VERTEX_POINT ( 'NONE', #52 ) ;
#144 = PRESENTATION_STYLE_ASSIGNMENT (( #203 ) ) ;
#145 = EDGE_CURVE ( 'NONE', #93, #93, #67, .T. ) ;
#146 = PLANE ( 'NONE',  #169 ) ;
#147 =( GEOMETRIC_REPRESENTATION_CONTEXT ( 3 ) GLOBAL_UNCERTAINTY_ASSIGNED_CONTEXT ( ( #98 ) ) GLOBAL_UNIT_ASSIGNED_CONTEXT ( ( #12, #149, #32 ) ) REPRESENTATION_CONTEXT ( 'NONE', 'WORKASPACE' ) );
#148 = PRESENTATION_LAYER_ASSIGNMENT (  '', '', ( #168 ) ) ;
#149 =( NAMED_UNIT ( * ) PLANE_ANGLE_UNIT ( ) SI_UNIT ( $, .RADIAN. ) );
#150 = CARTESIAN_POINT ( 'NONE',  ( 1.100000000000064038, 0.0000000000000000000, 0.0000000000000000000 ) ) ;
#151 = CARTESIAN_POINT ( 'NONE',  ( 0.0000000000000000000, 0.0000000000000000000, 0.0000000000000000000 ) ) ;
#152 = PRODUCT_DEFINITION_SHAPE ( 'NONE', 'NONE',  #77 ) ;
#153 = FILL_AREA_STYLE_COLOUR ( '', #45 ) ;
#154 = UNCERTAINTY_MEASURE_WITH_UNIT (LENGTH_MEASURE( 1.000000000000000082E-05 ), #10, 'distance_accuracy_value', 'NONE');
#155 = SURFACE_STYLE_FILL_AREA ( #38 ) ;
#156 = UNCERTAINTY_MEASURE_WITH_UNIT (LENGTH_MEASURE( 1.000000000000000082E-05 ), #24, 'distance_accuracy_value', 'NONE');
#157 = PRODUCT_RELATED_PRODUCT_CATEGORY ( 'part', '', ( #28 ) ) ;
#158 = PRESENTATION_LAYER_ASSIGNMENT (  '', '', ( #189 ) ) ;
#159 = CARTESIAN_POINT ( 'NONE',  ( -858.0000000000000000, 0.0000000000000000000, 0.0000000000000000000 ) ) ;
#160 = AXIS2_PLACEMENT_3D ( 'NONE', #91, #33, #41 ) ;
#161 = AXIS2_PLACEMENT_3D ( 'NONE', #151, #59, #173 ) ;
#162 = SURFACE_SIDE_STYLE ('',( #130 ) ) ;
#163 =( NAMED_UNIT ( * ) PLANE_ANGLE_UNIT ( ) SI_UNIT ( $, .RADIAN. ) );
#164 = FACE_OUTER_BOUND ( 'NONE', #134, .T. ) ;
#165 = FACE_OUTER_BOUND ( 'NONE', #124, .T. ) ;
#166 = CLOSED_SHELL ( 'NONE', ( #94, #66, #92 ) ) ;
#167 = EDGE_LOOP ( 'NONE', ( #47 ) ) ;
#168 = STYLED_ITEM ( 'NONE', ( #123 ), #92 ) ;
#169 = AXIS2_PLACEMENT_3D ( 'NONE', #79, #82, #107 ) ;
#170 = COLOUR_RGB ( '',0.7921568627450980005, 0.8196078431372548767, 0.9333333333333333481 ) ;
#171 = PRESENTATION_LAYER_ASSIGNMENT (  '', '', ( #180 ) ) ;
#172 = CARTESIAN_POINT ( 'NONE',  ( 47.99999999999998579, 0.0000000000000000000, 0.0000000000000000000 ) ) ;
#173 = DIRECTION ( 'NONE',  ( 1.000000000000000000, 0.0000000000000000000, 0.0000000000000000000 ) ) ;
#174 = FILL_AREA_STYLE ('',( #153 ) ) ;
#175 = CARTESIAN_POINT ( 'NONE',  ( 0.0000000000000000000, 0.0000000000000000000, 0.0000000000000000000 ) ) ;
#176 = EDGE_LOOP ( 'NONE', ( #193 ) ) ;
#177 =( GEOMETRIC_REPRESENTATION_CONTEXT ( 3 ) GLOBAL_UNCERTAINTY_ASSIGNED_CONTEXT ( ( #156 ) ) GLOBAL_UNIT_ASSIGNED_CONTEXT ( ( #24, #26, #71 ) ) REPRESENTATION_CONTEXT ( 'NONE', 'WORKASPACE' ) );
#178 = DIRECTION ( 'NONE',  ( -1.000000000000000000, -0.0000000000000000000, -0.0000000000000000000 ) ) ;
#179 = FACE_OUTER_BOUND ( 'NONE', #192, .T. ) ;
#180 = STYLED_ITEM ( 'NONE', ( #87 ), #125 ) ;
#181 = DIRECTION ( 'NONE',  ( 0.0000000000000000000, 0.0000000000000000000, 1.000000000000000000 ) ) ;
#182 = PRODUCT_CONTEXT ( 'NONE', #37, 'mechanical' ) ;
#183 =( GEOMETRIC_REPRESENTATION_CONTEXT ( 3 ) GLOBAL_UNCERTAINTY_ASSIGNED_CONTEXT ( ( #8 ) ) GLOBAL_UNIT_ASSIGNED_CONTEXT ( ( #50, #163, #60 ) ) REPRESENTATION_CONTEXT ( 'NONE', 'WORKASPACE' ) );
#184 = MECHANICAL_DESIGN_GEOMETRIC_PRESENTATION_REPRESENTATION (  '', ( #189 ), #194 ) ;
#185 = FACE_OUTER_BOUND ( 'NONE', #167, .T. ) ;
#186 = EDGE_LOOP ( 'NONE', ( #127 ) ) ;
#187 = UNCERTAINTY_MEASURE_WITH_UNIT (LENGTH_MEASURE( 1.000000000000000082E-05 ), #111, 'distance_accuracy_value', 'NONE');
#188 = ORIENTED_EDGE ( 'NONE', *, *, #58, .F. ) ;
#189 = STYLED_ITEM ( 'NONE', ( #9 ), #66 ) ;
#190 = SURFACE_STYLE_FILL_AREA ( #110 ) ;
#191 = ORIENTED_EDGE ( 'NONE', *, *, #40, .F. ) ;
#192 = EDGE_LOOP ( 'NONE', ( #188 ) ) ;
#193 = ORIENTED_EDGE ( 'NONE', *, *, #25, .F. ) ;
#194 =( GEOMETRIC_REPRESENTATION_CONTEXT ( 3 ) GLOBAL_UNCERTAINTY_ASSIGNED_CONTEXT ( ( #135 ) ) GLOBAL_UNIT_ASSIGNED_CONTEXT ( ( #210, #206, #86 ) ) REPRESENTATION_CONTEXT ( 'NONE', 'WORKASPACE' ) );
#195 = APPLICATION_PROTOCOL_DEFINITION ( 'draft international standard', 'automotive_design', 1998, #104 ) ;
#196 = EDGE_LOOP ( 'NONE', ( #23 ) ) ;
#197 = EDGE_LOOP ( 'NONE', ( #120 ) ) ;
#198 =( GEOMETRIC_REPRESENTATION_CONTEXT ( 3 ) GLOBAL_UNCERTAINTY_ASSIGNED_CONTEXT ( ( #154 ) ) GLOBAL_UNIT_ASSIGNED_CONTEXT ( ( #10, #13, #17 ) ) REPRESENTATION_CONTEXT ( 'NONE', 'WORKASPACE' ) );
#199 = FACE_OUTER_BOUND ( 'NONE', #20, .T. ) ;
#200 = FACE_OUTER_BOUND ( 'NONE', #196, .T. ) ;
#201 = PRODUCT_DEFINITION_FORMATION_WITH_SPECIFIED_SOURCE ( 'ANY', '', #28, .NOT_KNOWN. ) ;
#202 = DIRECTION ( 'NONE',  ( 1.000000000000000000, 0.0000000000000000000, 0.0000000000000000000 ) ) ;
#203 = SURFACE_STYLE_USAGE ( .BOTH. , #139 ) ;
#204 = DIRECTION ( 'NONE',  ( 1.000000000000000000, 0.0000000000000000000, 0.0000000000000000000 ) ) ;
#205 = AXIS2_PLACEMENT_3D ( 'NONE', #109, #202, #115 ) ;
#206 =( NAMED_UNIT ( * ) PLANE_ANGLE_UNIT ( ) SI_UNIT ( $, .RADIAN. ) );
#207 = CARTESIAN_POINT ( 'NONE',  ( 47.99999999999998579, 0.0000000000000000000, -5.500000000000007994 ) ) ;
#208 = AXIS2_PLACEMENT_3D ( 'NONE', #113, #178, #117 ) ;
#209 = ADVANCED_FACE ( 'NONE', ( #179, #72 ), #102, .T. ) ;
#210 =( LENGTH_UNIT ( ) NAMED_UNIT ( * ) SI_UNIT ( .MILLI., .METRE. ) );
#211 = AXIS2_PLACEMENT_3D ( 'NONE', #150, #204, #136 ) ;
#212 = CYLINDRICAL_SURFACE ( 'NONE', #97, 5.500000000000007994 ) ;
#213 = VERTEX_POINT ( 'NONE', #69 ) ;
ENDSEC;
END-ISO-10303-21;
