ISO-10303-21;
HEADER;
FILE_DESCRIPTION (( 'STEP AP214' ),
    '1' );
FILE_NAME ('03-1719.STEP',
    '2021-10-01T05:49:23',
    ( 'USER' ),
    ( '' ),
    'SwSTEP 2.0',
    'SolidWorks 2018',
    '' );
FILE_SCHEMA (( 'AUTOMOTIVE_DESIGN' ));
ENDSEC;

DATA;
#1 = DIRECTION ( 'NONE',  ( 1.000000000000000000, 0.0000000000000000000, 0.0000000000000000000 ) ) ;
#2 = FILL_AREA_STYLE ('',( #24 ) ) ;
#3 = ORIENTED_EDGE ( 'NONE', *, *, #102, .F. ) ;
#4 = SURFACE_STYLE_FILL_AREA ( #80 ) ;
#5 = FACE_OUTER_BOUND ( 'NONE', #12, .T. ) ;
#6 = PRESENTATION_LAYER_ASSIGNMENT (  '', '', ( #209 ) ) ;
#7 = PRESENTATION_STYLE_ASSIGNMENT (( #213 ) ) ;
#8 = FILL_AREA_STYLE ('',( #78 ) ) ;
#9 = MANIFOLD_SOLID_BREP ( 'ºÐÇÒ2[1]', #83 ) ;
#10 = AXIS2_PLACEMENT_3D ( 'NONE', #176, #19, #16 ) ;
#11 = AXIS2_PLACEMENT_3D ( 'NONE', #89, #68, #45 ) ;
#12 = EDGE_LOOP ( 'NONE', ( #15 ) ) ;
#13 = UNCERTAINTY_MEASURE_WITH_UNIT (LENGTH_MEASURE( 1.000000000000000082E-05 ), #185, 'distance_accuracy_value', 'NONE');
#14 = ADVANCED_FACE ( 'NONE', ( #63, #44 ), #194, .T. ) ;
#15 = ORIENTED_EDGE ( 'NONE', *, *, #135, .T. ) ;
#16 = DIRECTION ( 'NONE',  ( 1.000000000000000000, 0.0000000000000000000, 0.0000000000000000000 ) ) ;
#17 = CARTESIAN_POINT ( 'NONE',  ( -3.459627207591272669E-16, 0.0000000000000000000, 0.0000000000000000000 ) ) ;
#18 = VERTEX_POINT ( 'NONE', #53 ) ;
#19 = DIRECTION ( 'NONE',  ( 0.0000000000000000000, 0.0000000000000000000, 1.000000000000000000 ) ) ;
#20 =( NAMED_UNIT ( * ) SI_UNIT ( $, .STERADIAN. ) SOLID_ANGLE_UNIT ( ) );
#21 = UNCERTAINTY_MEASURE_WITH_UNIT (LENGTH_MEASURE( 1.000000000000000082E-05 ), #31, 'distance_accuracy_value', 'NONE');
#22 = PRODUCT_DEFINITION ( 'UNKNOWN', '', #76, #195 ) ;
#23 = EDGE_LOOP ( 'NONE', ( #87 ) ) ;
#24 = FILL_AREA_STYLE_COLOUR ( '', #43 ) ;
#25 = ORIENTED_EDGE ( 'NONE', *, *, #121, .F. ) ;
#26 = PLANE ( 'NONE',  #82 ) ;
#27 = FACE_OUTER_BOUND ( 'NONE', #60, .T. ) ;
#28 = EDGE_LOOP ( 'NONE', ( #3 ) ) ;
#29 = SURFACE_STYLE_USAGE ( .BOTH. , #94 ) ;
#30 = CARTESIAN_POINT ( 'NONE',  ( -858.0000000000000000, 0.0000000000000000000, 0.0000000000000000000 ) ) ;
#31 =( LENGTH_UNIT ( ) NAMED_UNIT ( * ) SI_UNIT ( .MILLI., .METRE. ) );
#32 = ADVANCED_FACE ( 'NONE', ( #131 ), #130, .F. ) ;
#33 = AXIS2_PLACEMENT_3D ( 'NONE', #159, #126, #75 ) ;
#34 = COLOUR_RGB ( '',1.000000000000000000, 1.000000000000000000, 0.0000000000000000000 ) ;
#35 = STYLED_ITEM ( 'NONE', ( #79 ), #50 ) ;
#36 = DIRECTION ( 'NONE',  ( 0.0000000000000000000, 0.0000000000000000000, 1.000000000000000000 ) ) ;
#37 = DIRECTION ( 'NONE',  ( -1.000000000000000000, -0.0000000000000000000, -0.0000000000000000000 ) ) ;
#38 = ORIENTED_EDGE ( 'NONE', *, *, #135, .F. ) ;
#39 = CLOSED_SHELL ( 'NONE', ( #32, #50, #184 ) ) ;
#40 = EDGE_LOOP ( 'NONE', ( #110 ) ) ;
#41 = DIRECTION ( 'NONE',  ( 0.0000000000000000000, 0.0000000000000000000, -1.000000000000000000 ) ) ;
#42 = SURFACE_STYLE_FILL_AREA ( #8 ) ;
#43 = COLOUR_RGB ( '',0.7921568627450980005, 0.8196078431372548767, 0.9333333333333333481 ) ;
#44 = FACE_BOUND ( 'NONE', #40, .T. ) ;
#45 = DIRECTION ( 'NONE',  ( 0.0000000000000000000, 0.0000000000000000000, -1.000000000000000000 ) ) ;
#46 = PRESENTATION_STYLE_ASSIGNMENT (( #198 ) ) ;
#47 = AXIS2_PLACEMENT_3D ( 'NONE', #143, #74, #70 ) ;
#48 = FILL_AREA_STYLE_COLOUR ( '', #34 ) ;
#49 = CARTESIAN_POINT ( 'NONE',  ( 47.99999999999998579, 0.0000000000000000000, 0.0000000000000000000 ) ) ;
#50 = ADVANCED_FACE ( 'NONE', ( #69, #5 ), #172, .T. ) ;
#51 =( NAMED_UNIT ( * ) PLANE_ANGLE_UNIT ( ) SI_UNIT ( $, .RADIAN. ) );
#52 = MECHANICAL_DESIGN_GEOMETRIC_PRESENTATION_REPRESENTATION (  '', ( #35 ), #54 ) ;
#53 = CARTESIAN_POINT ( 'NONE',  ( 1.130000000000009219, 0.0000000000000000000, -5.650000000000009237 ) ) ;
#54 =( GEOMETRIC_REPRESENTATION_CONTEXT ( 3 ) GLOBAL_UNCERTAINTY_ASSIGNED_CONTEXT ( ( #13 ) ) GLOBAL_UNIT_ASSIGNED_CONTEXT ( ( #185, #51, #166 ) ) REPRESENTATION_CONTEXT ( 'NONE', 'WORKASPACE' ) );
#55 = AXIS2_PLACEMENT_3D ( 'NONE', #142, #37, #141 ) ;
#56 = DIRECTION ( 'NONE',  ( 0.0000000000000000000, 0.0000000000000000000, -1.000000000000000000 ) ) ;
#57 = UNCERTAINTY_MEASURE_WITH_UNIT (LENGTH_MEASURE( 1.000000000000000082E-05 ), #169, 'distance_accuracy_value', 'NONE');
#58 = PRESENTATION_LAYER_ASSIGNMENT (  '', '', ( #144 ) ) ;
#59 = APPLICATION_PROTOCOL_DEFINITION ( 'draft international standard', 'automotive_design', 1998, #160 ) ;
#60 = EDGE_LOOP ( 'NONE', ( #38 ) ) ;
#61 = DIRECTION ( 'NONE',  ( 0.0000000000000000000, 0.0000000000000000000, -1.000000000000000000 ) ) ;
#62 = AXIS2_PLACEMENT_3D ( 'NONE', #17, #178, #173 ) ;
#63 = FACE_OUTER_BOUND ( 'NONE', #72, .T. ) ;
#64 =( NAMED_UNIT ( * ) SI_UNIT ( $, .STERADIAN. ) SOLID_ANGLE_UNIT ( ) );
#65 =( GEOMETRIC_REPRESENTATION_CONTEXT ( 3 ) GLOBAL_UNCERTAINTY_ASSIGNED_CONTEXT ( ( #21 ) ) GLOBAL_UNIT_ASSIGNED_CONTEXT ( ( #31, #133, #20 ) ) REPRESENTATION_CONTEXT ( 'NONE', 'WORKASPACE' ) );
#66 = SHAPE_DEFINITION_REPRESENTATION ( #81, #103 ) ;
#67 = CARTESIAN_POINT ( 'NONE',  ( 47.99999999999998579, 0.0000000000000000000, 0.0000000000000000000 ) ) ;
#68 = DIRECTION ( 'NONE',  ( 1.000000000000000000, 0.0000000000000000000, 0.0000000000000000000 ) ) ;
#69 = FACE_OUTER_BOUND ( 'NONE', #91, .T. ) ;
#70 = DIRECTION ( 'NONE',  ( 0.0000000000000000000, 0.0000000000000000000, 1.000000000000000000 ) ) ;
#71 = COLOUR_RGB ( '',0.7921568627450980005, 0.8196078431372548767, 0.9333333333333333481 ) ;
#72 = EDGE_LOOP ( 'NONE', ( #25 ) ) ;
#73 = SURFACE_STYLE_FILL_AREA ( #179 ) ;
#74 = DIRECTION ( 'NONE',  ( -1.000000000000000000, -0.0000000000000000000, -0.0000000000000000000 ) ) ;
#75 = DIRECTION ( 'NONE',  ( 0.0000000000000000000, 0.0000000000000000000, -1.000000000000000000 ) ) ;
#76 = PRODUCT_DEFINITION_FORMATION_WITH_SPECIFIED_SOURCE ( 'ANY', '', #129, .NOT_KNOWN. ) ;
#77 = CARTESIAN_POINT ( 'NONE',  ( 47.99999999999998579, 0.0000000000000000000, 0.0000000000000000000 ) ) ;
#78 = FILL_AREA_STYLE_COLOUR ( '', #161 ) ;
#79 = PRESENTATION_STYLE_ASSIGNMENT (( #29 ) ) ;
#80 = FILL_AREA_STYLE ('',( #150 ) ) ;
#81 = PRODUCT_DEFINITION_SHAPE ( 'NONE', 'NONE',  #22 ) ;
#82 = AXIS2_PLACEMENT_3D ( 'NONE', #49, #124, #61 ) ;
#83 = CLOSED_SHELL ( 'NONE', ( #122, #106, #14, #168 ) ) ;
#84 = FACE_OUTER_BOUND ( 'NONE', #28, .T. ) ;
#85 = CONICAL_SURFACE ( 'NONE', #167, 2414.213562373059176, 1.178097245096167311 ) ;
#86 = DIRECTION ( 'NONE',  ( 0.0000000000000000000, 0.0000000000000000000, 1.000000000000000000 ) ) ;
#87 = ORIENTED_EDGE ( 'NONE', *, *, #121, .T. ) ;
#88 = AXIS2_PLACEMENT_3D ( 'NONE', #67, #163, #41 ) ;
#89 = CARTESIAN_POINT ( 'NONE',  ( 1.130000000000009219, 0.0000000000000000000, 0.0000000000000000000 ) ) ;
#90 = PRODUCT_CONTEXT ( 'NONE', #160, 'mechanical' ) ;
#91 = EDGE_LOOP ( 'NONE', ( #193 ) ) ;
#92 = CIRCLE ( 'NONE', #62, 4.520000000000010232 ) ;
#93 = PRESENTATION_STYLE_ASSIGNMENT (( #107 ) ) ;
#94 = SURFACE_SIDE_STYLE ('',( #73 ) ) ;
#95 = CARTESIAN_POINT ( 'NONE',  ( 47.99999999999998579, 0.0000000000000000000, -5.650000000000009237 ) ) ;
#96 = DIRECTION ( 'NONE',  ( -1.000000000000000000, -0.0000000000000000000, -0.0000000000000000000 ) ) ;
#97 = ORIENTED_EDGE ( 'NONE', *, *, #202, .F. ) ;
#98 = APPLICATION_CONTEXT ( 'automotive_design' ) ;
#99 = EDGE_LOOP ( 'NONE', ( #175 ) ) ;
#100 = EDGE_LOOP ( 'NONE', ( #97 ) ) ;
#101 = SURFACE_STYLE_FILL_AREA ( #145 ) ;
#102 = EDGE_CURVE ( 'NONE', #196, #196, #153, .T. ) ;
#103 = ADVANCED_BREP_SHAPE_REPRESENTATION ( '03-1719', ( #9, #199, #10 ), #146 ) ;
#104 = CARTESIAN_POINT ( 'NONE',  ( 139.6596933725919598, 0.0000000000000000000, 0.0000000000000000000 ) ) ;
#105 = ORIENTED_EDGE ( 'NONE', *, *, #102, .T. ) ;
#106 = ADVANCED_FACE ( 'NONE', ( #118 ), #117, .F. ) ;
#107 = SURFACE_STYLE_USAGE ( .BOTH. , #139 ) ;
#108 = PRESENTATION_LAYER_ASSIGNMENT (  '', '', ( #35 ) ) ;
#109 = EDGE_CURVE ( 'NONE', #137, #137, #92, .T. ) ;
#110 = ORIENTED_EDGE ( 'NONE', *, *, #109, .F. ) ;
#111 =( NAMED_UNIT ( * ) PLANE_ANGLE_UNIT ( ) SI_UNIT ( $, .RADIAN. ) );
#112 = APPLICATION_PROTOCOL_DEFINITION ( 'draft international standard', 'automotive_design', 1998, #98 ) ;
#113 = CIRCLE ( 'NONE', #11, 5.650000000000009237 ) ;
#114 =( NAMED_UNIT ( * ) SI_UNIT ( $, .STERADIAN. ) SOLID_ANGLE_UNIT ( ) );
#115 =( NAMED_UNIT ( * ) PLANE_ANGLE_UNIT ( ) SI_UNIT ( $, .RADIAN. ) );
#116 =( GEOMETRIC_REPRESENTATION_CONTEXT ( 3 ) GLOBAL_UNCERTAINTY_ASSIGNED_CONTEXT ( ( #57 ) ) GLOBAL_UNIT_ASSIGNED_CONTEXT ( ( #169, #148, #156 ) ) REPRESENTATION_CONTEXT ( 'NONE', 'WORKASPACE' ) );
#117 = PLANE ( 'NONE',  #204 ) ;
#118 = FACE_OUTER_BOUND ( 'NONE', #99, .T. ) ;
#119 = DIRECTION ( 'NONE',  ( -1.000000000000000000, -0.0000000000000000000, -0.0000000000000000000 ) ) ;
#120 = DIRECTION ( 'NONE',  ( 1.000000000000000000, 0.0000000000000000000, 0.0000000000000000000 ) ) ;
#121 = EDGE_CURVE ( 'NONE', #18, #18, #113, .T. ) ;
#122 = ADVANCED_FACE ( 'NONE', ( #201, #84 ), #125, .T. ) ;
#123 = UNCERTAINTY_MEASURE_WITH_UNIT (LENGTH_MEASURE( 1.000000000000000082E-05 ), #136, 'distance_accuracy_value', 'NONE');
#124 = DIRECTION ( 'NONE',  ( 1.000000000000000000, 0.0000000000000000000, 0.0000000000000000000 ) ) ;
#125 = CYLINDRICAL_SURFACE ( 'NONE', #55, 5.650000000000009237 ) ;
#126 = DIRECTION ( 'NONE',  ( 1.000000000000000000, 0.0000000000000000000, 0.0000000000000000000 ) ) ;
#127 = PRESENTATION_STYLE_ASSIGNMENT (( #177 ) ) ;
#128 =( LENGTH_UNIT ( ) NAMED_UNIT ( * ) SI_UNIT ( .MILLI., .METRE. ) );
#129 = PRODUCT ( '03-1719', '03-1719', '', ( #90 ) ) ;
#130 = PLANE ( 'NONE',  #88 ) ;
#131 = FACE_OUTER_BOUND ( 'NONE', #100, .T. ) ;
#132 = COLOUR_RGB ( '',0.7921568627450980005, 0.8196078431372548767, 0.9333333333333333481 ) ;
#133 =( NAMED_UNIT ( * ) PLANE_ANGLE_UNIT ( ) SI_UNIT ( $, .RADIAN. ) );
#134 =( NAMED_UNIT ( * ) PLANE_ANGLE_UNIT ( ) SI_UNIT ( $, .RADIAN. ) );
#135 = EDGE_CURVE ( 'NONE', #190, #190, #207, .T. ) ;
#136 =( LENGTH_UNIT ( ) NAMED_UNIT ( * ) SI_UNIT ( .MILLI., .METRE. ) );
#137 = VERTEX_POINT ( 'NONE', #210 ) ;
#138 = AXIS2_PLACEMENT_3D ( 'NONE', #104, #119, #86 ) ;
#139 = SURFACE_SIDE_STYLE ('',( #208 ) ) ;
#140 = AXIS2_PLACEMENT_3D ( 'NONE', #154, #120, #171 ) ;
#141 = DIRECTION ( 'NONE',  ( 0.0000000000000000000, 0.0000000000000000000, 1.000000000000000000 ) ) ;
#142 = CARTESIAN_POINT ( 'NONE',  ( 0.0000000000000000000, 0.0000000000000000000, 0.0000000000000000000 ) ) ;
#143 = CARTESIAN_POINT ( 'NONE',  ( 0.0000000000000000000, 0.0000000000000000000, 0.0000000000000000000 ) ) ;
#144 = STYLED_ITEM ( 'NONE', ( #7 ), #184 ) ;
#145 = FILL_AREA_STYLE ('',( #188 ) ) ;
#146 =( GEOMETRIC_REPRESENTATION_CONTEXT ( 3 ) GLOBAL_UNCERTAINTY_ASSIGNED_CONTEXT ( ( #192 ) ) GLOBAL_UNIT_ASSIGNED_CONTEXT ( ( #157, #134, #114 ) ) REPRESENTATION_CONTEXT ( 'NONE', 'WORKASPACE' ) );
#147 = VERTEX_POINT ( 'NONE', #95 ) ;
#148 =( NAMED_UNIT ( * ) PLANE_ANGLE_UNIT ( ) SI_UNIT ( $, .RADIAN. ) );
#149 = EDGE_LOOP ( 'NONE', ( #105 ) ) ;
#150 = FILL_AREA_STYLE_COLOUR ( '', #71 ) ;
#151 = CARTESIAN_POINT ( 'NONE',  ( -3.459627207591272669E-16, 5.649999999999999467, 0.0000000000000000000 ) ) ;
#152 = SURFACE_SIDE_STYLE ('',( #42 ) ) ;
#153 = CIRCLE ( 'NONE', #212, 5.650000000000009237 ) ;
#154 = CARTESIAN_POINT ( 'NONE',  ( -3.459627207591272669E-16, 0.0000000000000000000, 0.0000000000000000000 ) ) ;
#155 =( GEOMETRIC_REPRESENTATION_CONTEXT ( 3 ) GLOBAL_UNCERTAINTY_ASSIGNED_CONTEXT ( ( #158 ) ) GLOBAL_UNIT_ASSIGNED_CONTEXT ( ( #128, #111, #64 ) ) REPRESENTATION_CONTEXT ( 'NONE', 'WORKASPACE' ) );
#156 =( NAMED_UNIT ( * ) SI_UNIT ( $, .STERADIAN. ) SOLID_ANGLE_UNIT ( ) );
#157 =( LENGTH_UNIT ( ) NAMED_UNIT ( * ) SI_UNIT ( .MILLI., .METRE. ) );
#158 = UNCERTAINTY_MEASURE_WITH_UNIT (LENGTH_MEASURE( 1.000000000000000082E-05 ), #128, 'distance_accuracy_value', 'NONE');
#159 = CARTESIAN_POINT ( 'NONE',  ( 47.99999999999998579, 0.0000000000000000000, 0.0000000000000000000 ) ) ;
#160 = APPLICATION_CONTEXT ( 'automotive_design' ) ;
#161 = COLOUR_RGB ( '',1.000000000000000000, 1.000000000000000000, 0.0000000000000000000 ) ;
#162 = DIRECTION ( 'NONE',  ( 1.000000000000000000, 0.0000000000000000000, 0.0000000000000000000 ) ) ;
#163 = DIRECTION ( 'NONE',  ( 1.000000000000000000, 0.0000000000000000000, 0.0000000000000000000 ) ) ;
#164 = FACE_OUTER_BOUND ( 'NONE', #149, .T. ) ;
#165 = SURFACE_SIDE_STYLE ('',( #101 ) ) ;
#166 =( NAMED_UNIT ( * ) SI_UNIT ( $, .STERADIAN. ) SOLID_ANGLE_UNIT ( ) );
#167 = AXIS2_PLACEMENT_3D ( 'NONE', #30, #96, #36 ) ;
#168 = ADVANCED_FACE ( 'NONE', ( #164 ), #26, .T. ) ;
#169 =( LENGTH_UNIT ( ) NAMED_UNIT ( * ) SI_UNIT ( .MILLI., .METRE. ) );
#170 = MECHANICAL_DESIGN_GEOMETRIC_PRESENTATION_REPRESENTATION (  '', ( #209 ), #116 ) ;
#171 = DIRECTION ( 'NONE',  ( 0.0000000000000000000, 0.0000000000000000000, -1.000000000000000000 ) ) ;
#172 = CYLINDRICAL_SURFACE ( 'NONE', #47, 5.650000000000009237 ) ;
#173 = DIRECTION ( 'NONE',  ( 0.0000000000000000000, 0.0000000000000000000, -1.000000000000000000 ) ) ;
#174 = CIRCLE ( 'NONE', #33, 5.650000000000009237 ) ;
#175 = ORIENTED_EDGE ( 'NONE', *, *, #109, .T. ) ;
#176 = CARTESIAN_POINT ( 'NONE',  ( 0.0000000000000000000, 0.0000000000000000000, 0.0000000000000000000 ) ) ;
#177 = SURFACE_STYLE_USAGE ( .BOTH. , #189 ) ;
#178 = DIRECTION ( 'NONE',  ( -1.000000000000000000, -0.0000000000000000000, -0.0000000000000000000 ) ) ;
#179 = FILL_AREA_STYLE ('',( #48 ) ) ;
#180 = CARTESIAN_POINT ( 'NONE',  ( 47.99999999999998579, 0.0000000000000000000, -5.650000000000009237 ) ) ;
#181 = PRESENTATION_LAYER_ASSIGNMENT (  '', '', ( #186 ) ) ;
#182 =( GEOMETRIC_REPRESENTATION_CONTEXT ( 3 ) GLOBAL_UNCERTAINTY_ASSIGNED_CONTEXT ( ( #123 ) ) GLOBAL_UNIT_ASSIGNED_CONTEXT ( ( #136, #115, #191 ) ) REPRESENTATION_CONTEXT ( 'NONE', 'WORKASPACE' ) );
#183 = DIRECTION ( 'NONE',  ( 0.0000000000000000000, 0.0000000000000000000, -1.000000000000000000 ) ) ;
#184 = ADVANCED_FACE ( 'NONE', ( #27 ), #85, .T. ) ;
#185 =( LENGTH_UNIT ( ) NAMED_UNIT ( * ) SI_UNIT ( .MILLI., .METRE. ) );
#186 = STYLED_ITEM ( 'NONE', ( #46 ), #103 ) ;
#187 = MECHANICAL_DESIGN_GEOMETRIC_PRESENTATION_REPRESENTATION (  '', ( #206 ), #182 ) ;
#188 = FILL_AREA_STYLE_COLOUR ( '', #132 ) ;
#189 = SURFACE_SIDE_STYLE ('',( #4 ) ) ;
#190 = VERTEX_POINT ( 'NONE', #203 ) ;
#191 =( NAMED_UNIT ( * ) SI_UNIT ( $, .STERADIAN. ) SOLID_ANGLE_UNIT ( ) );
#192 = UNCERTAINTY_MEASURE_WITH_UNIT (LENGTH_MEASURE( 1.000000000000000082E-05 ), #157, 'distance_accuracy_value', 'NONE');
#193 = ORIENTED_EDGE ( 'NONE', *, *, #202, .T. ) ;
#194 = CONICAL_SURFACE ( 'NONE', #140, 4.520000000000010232, 0.7853981633974437271 ) ;
#195 = PRODUCT_DEFINITION_CONTEXT ( 'detailed design', #98, 'design' ) ;
#196 = VERTEX_POINT ( 'NONE', #180 ) ;
#197 = MECHANICAL_DESIGN_GEOMETRIC_PRESENTATION_REPRESENTATION (  '', ( #144 ), #155 ) ;
#198 = SURFACE_STYLE_USAGE ( .BOTH. , #165 ) ;
#199 = MANIFOLD_SOLID_BREP ( 'ºÐÇÒ2[2]', #39 ) ;
#200 = PRESENTATION_LAYER_ASSIGNMENT (  '', '', ( #206 ) ) ;
#201 = FACE_OUTER_BOUND ( 'NONE', #23, .T. ) ;
#202 = EDGE_CURVE ( 'NONE', #147, #147, #174, .T. ) ;
#203 = CARTESIAN_POINT ( 'NONE',  ( 139.6596933725919598, 0.0000000000000000000, 5.650000000000018119 ) ) ;
#204 = AXIS2_PLACEMENT_3D ( 'NONE', #151, #162, #183 ) ;
#205 = MECHANICAL_DESIGN_GEOMETRIC_PRESENTATION_REPRESENTATION (  '', ( #186 ), #65 ) ;
#206 = STYLED_ITEM ( 'NONE', ( #93 ), #199 ) ;
#207 = CIRCLE ( 'NONE', #138, 5.650000000000018119 ) ;
#208 = SURFACE_STYLE_FILL_AREA ( #2 ) ;
#209 = STYLED_ITEM ( 'NONE', ( #127 ), #9 ) ;
#210 = CARTESIAN_POINT ( 'NONE',  ( -3.459627207591272669E-16, 0.0000000000000000000, -4.520000000000010232 ) ) ;
#211 = PRODUCT_RELATED_PRODUCT_CATEGORY ( 'part', '', ( #129 ) ) ;
#212 = AXIS2_PLACEMENT_3D ( 'NONE', #77, #1, #56 ) ;
#213 = SURFACE_STYLE_USAGE ( .BOTH. , #152 ) ;
ENDSEC;
END-ISO-10303-21;
